ISO-10303-21;
HEADER;
FILE_DESCRIPTION (( 'STEP AP203' ),
    '1' );
FILE_NAME ('1271.STEP',
    '2023-02-13T16:07:59',
    ( '' ),
    ( '' ),
    'SwSTEP 2.0',
    'SolidWorks 2019',
    '' );
FILE_SCHEMA (( 'CONFIG_CONTROL_DESIGN' ));
ENDSEC;

DATA;
#1 = APPROVAL_DATE_TIME ( #236, #213 ) ;
#2 = EDGE_CURVE ( 'NONE', #166, #59, #50, .T. ) ;
#3 = CARTESIAN_POINT ( 'NONE',  ( 0.000000000000000000, 0.000000000000000000, 3.000000000000000000 ) ) ;
#4 = DIRECTION ( 'NONE',  ( 0.000000000000000000, 0.000000000000000000, 1.000000000000000000 ) ) ;
#5 = CC_DESIGN_PERSON_AND_ORGANIZATION_ASSIGNMENT ( #215, #161, ( #190 ) ) ;
#6 = AXIS2_PLACEMENT_3D ( 'NONE', #187, #13, #110 ) ;
#7 = ORIENTED_EDGE ( 'NONE', *, *, #168, .T. ) ;
#8 = CARTESIAN_POINT ( 'NONE',  ( 0.000000000000000000, 0.000000000000000000, 315.0000000000000000 ) ) ;
#9 = LINE ( 'NONE', #63, #221 ) ;
#10 = CIRCLE ( 'NONE', #176, 2.100000000000000089 ) ;
#11 = EDGE_CURVE ( 'NONE', #32, #89, #105, .T. ) ;
#12 =( NAMED_UNIT ( * ) SI_UNIT ( $, .STERADIAN. ) SOLID_ANGLE_UNIT ( ) );
#13 = DIRECTION ( 'NONE',  ( 0.000000000000000000, 0.000000000000000000, 1.000000000000000000 ) ) ;
#14 = DIRECTION ( 'NONE',  ( -0.000000000000000000, -0.000000000000000000, -1.000000000000000000 ) ) ;
#15 = DIRECTION ( 'NONE',  ( 1.000000000000000000, 0.000000000000000000, 0.000000000000000000 ) ) ;
#16 = LINE ( 'NONE', #228, #230 ) ;
#17 = COORDINATED_UNIVERSAL_TIME_OFFSET ( 1, 0, .AHEAD. ) ;
#18 = LOCAL_TIME ( 17, 7, 59.00000000000000000, #118 ) ;
#19 = APPLICATION_PROTOCOL_DEFINITION ( 'international standard', 'config_control_design', 1994, #254 ) ;
#20 = EDGE_CURVE ( 'NONE', #59, #166, #144, .T. ) ;
#21 = PERSON_AND_ORGANIZATION ( #71, #31 ) ;
#22 = CARTESIAN_POINT ( 'NONE',  ( 0.000000000000000000, 0.000000000000000000, 0.000000000000000000 ) ) ;
#23 = AXIS2_PLACEMENT_3D ( 'NONE', #35, #156, #229 ) ;
#24 = LOCAL_TIME ( 17, 7, 59.00000000000000000, #60 ) ;
#25 = CYLINDRICAL_SURFACE ( 'NONE', #28, 2.100000000000000089 ) ;
#26 = CC_DESIGN_PERSON_AND_ORGANIZATION_ASSIGNMENT ( #179, #173, ( #138 ) ) ;
#27 = ORIENTED_EDGE ( 'NONE', *, *, #11, .T. ) ;
#28 = AXIS2_PLACEMENT_3D ( 'NONE', #150, #223, #130 ) ;
#29 = AXIS2_PLACEMENT_3D ( 'NONE', #151, #224, #55 ) ;
#30 = ORIENTED_EDGE ( 'NONE', *, *, #204, .F. ) ;
#31 = ORGANIZATION ( 'NEURÈENÝ', 'NEURÈENÝ', '' ) ;
#32 = VERTEX_POINT ( 'NONE', #129 ) ;
#33 = DIRECTION ( 'NONE',  ( 1.000000000000000000, 0.000000000000000000, 0.000000000000000000 ) ) ;
#34 = ADVANCED_FACE ( 'NONE', ( #219 ), #185, .T. ) ;
#35 = CARTESIAN_POINT ( 'NONE',  ( 0.000000000000000000, 0.000000000000000000, 0.000000000000000000 ) ) ;
#36 = AXIS2_PLACEMENT_3D ( 'NONE', #22, #58, #78 ) ;
#37 = CARTESIAN_POINT ( 'NONE',  ( -2.100000000000000089, 0.000000000000000000, 3.000000000000000000 ) ) ;
#38 = DIRECTION ( 'NONE',  ( 0.000000000000000000, 0.000000000000000000, 1.000000000000000000 ) ) ;
#39 = PRODUCT_RELATED_PRODUCT_CATEGORY ( 'detail', '', ( #138 ) ) ;
#40 = FACE_BOUND ( 'NONE', #199, .T. ) ;
#41 = PERSON_AND_ORGANIZATION_ROLE ( 'classification_officer' ) ;
#42 = DATE_TIME_ROLE ( 'classification_date' ) ;
#43 = PERSON_AND_ORGANIZATION ( #71, #31 ) ;
#44 = PRODUCT_DEFINITION ( 'NEZNÁMÝ', '', #190, #252 ) ;
#45 = ORIENTED_EDGE ( 'NONE', *, *, #77, .F. ) ;
#46 = ORIENTED_EDGE ( 'NONE', *, *, #85, .F. ) ;
#47 = CARTESIAN_POINT ( 'NONE',  ( 2.100000000000000089, 2.571758278209441957E-16, 315.0000000000000000 ) ) ;
#48 = DIRECTION ( 'NONE',  ( 0.000000000000000000, 0.000000000000000000, 1.000000000000000000 ) ) ;
#49 = DIRECTION ( 'NONE',  ( 0.000000000000000000, 0.000000000000000000, 1.000000000000000000 ) ) ;
#50 = CIRCLE ( 'NONE', #181, 2.100000000000000089 ) ;
#51 = CYLINDRICAL_SURFACE ( 'NONE', #92, 2.100000000000000089 ) ;
#52 = EDGE_CURVE ( 'NONE', #88, #184, #174, .T. ) ;
#53 = DIRECTION ( 'NONE',  ( -0.000000000000000000, -0.000000000000000000, -1.000000000000000000 ) ) ;
#54 = CARTESIAN_POINT ( 'NONE',  ( -4.000000000000000000, 0.000000000000000000, 3.000000000000000000 ) ) ;
#55 = DIRECTION ( 'NONE',  ( -1.000000000000000000, 0.000000000000000000, 0.000000000000000000 ) ) ;
#56 = PERSON_AND_ORGANIZATION ( #71, #31 ) ;
#57 = ORIENTED_EDGE ( 'NONE', *, *, #2, .F. ) ;
#58 = DIRECTION ( 'NONE',  ( 0.000000000000000000, 0.000000000000000000, 1.000000000000000000 ) ) ;
#59 = VERTEX_POINT ( 'NONE', #47 ) ;
#60 = COORDINATED_UNIVERSAL_TIME_OFFSET ( 1, 0, .AHEAD. ) ;
#61 = AXIS2_PLACEMENT_3D ( 'NONE', #147, #91, #218 ) ;
#62 = PERSON_AND_ORGANIZATION_ROLE ( 'creator' ) ;
#63 = CARTESIAN_POINT ( 'NONE',  ( -2.100000000000000089, 0.000000000000000000, 315.0000000000000000 ) ) ;
#64 = CC_DESIGN_APPROVAL ( #112, ( #125 ) ) ;
#65 = ORIENTED_EDGE ( 'NONE', *, *, #200, .F. ) ;
#66 = ORIENTED_EDGE ( 'NONE', *, *, #246, .F. ) ;
#67 = ORIENTED_EDGE ( 'NONE', *, *, #175, .T. ) ;
#68 = FACE_OUTER_BOUND ( 'NONE', #128, .T. ) ;
#69 =( GEOMETRIC_REPRESENTATION_CONTEXT ( 3 ) GLOBAL_UNCERTAINTY_ASSIGNED_CONTEXT ( ( #94 ) ) GLOBAL_UNIT_ASSIGNED_CONTEXT ( ( #212, #117, #12 ) ) REPRESENTATION_CONTEXT ( 'NONE', 'WORKASPACE' ) );
#70 = DIRECTION ( 'NONE',  ( -1.000000000000000000, 0.000000000000000000, 0.000000000000000000 ) ) ;
#71 = PERSON ( 'NEURÈENÝ', 'NEURÈENÝ', 'NEURÈENÝ', ('NEURÈENÝ'), ('NEURÈENÝ'), ('NEURÈENÝ') ) ;
#72 = PLANE ( 'NONE',  #6 ) ;
#73 = ADVANCED_FACE ( 'NONE', ( #68 ), #25, .T. ) ;
#74 = FACE_OUTER_BOUND ( 'NONE', #239, .T. ) ;
#75 = DIRECTION ( 'NONE',  ( 1.000000000000000000, 0.000000000000000000, -0.000000000000000000 ) ) ;
#76 = LINE ( 'NONE', #247, #170 ) ;
#77 = EDGE_CURVE ( 'NONE', #164, #126, #95, .T. ) ;
#78 = DIRECTION ( 'NONE',  ( 1.000000000000000000, 0.000000000000000000, 0.000000000000000000 ) ) ;
#79 = PERSON_AND_ORGANIZATION ( #71, #31 ) ;
#80 = APPROVAL_DATE_TIME ( #231, #102 ) ;
#81 = LOCAL_TIME ( 17, 7, 59.00000000000000000, #17 ) ;
#82 = APPROVAL_STATUS ( 'not_yet_approved' ) ;
#83 = EDGE_LOOP ( 'NONE', ( #202, #84 ) ) ;
#84 = ORIENTED_EDGE ( 'NONE', *, *, #90, .F. ) ;
#85 = EDGE_CURVE ( 'NONE', #166, #164, #9, .T. ) ;
#86 = ORIENTED_EDGE ( 'NONE', *, *, #20, .F. ) ;
#87 = VECTOR ( 'NONE', #154, 1000.000000000000000 ) ;
#88 = VERTEX_POINT ( 'NONE', #153 ) ;
#89 = VERTEX_POINT ( 'NONE', #114 ) ;
#90 = EDGE_CURVE ( 'NONE', #89, #32, #135, .T. ) ;
#91 = DIRECTION ( 'NONE',  ( 0.000000000000000000, 0.000000000000000000, 1.000000000000000000 ) ) ;
#92 = AXIS2_PLACEMENT_3D ( 'NONE', #172, #98, #70 ) ;
#93 = CARTESIAN_POINT ( 'NONE',  ( 0.000000000000000000, 0.000000000000000000, 0.000000000000000000 ) ) ;
#94 = UNCERTAINTY_MEASURE_WITH_UNIT (LENGTH_MEASURE( 1.000000000000000082E-05 ), #212, 'distance_accuracy_value', 'NONE');
#95 = CIRCLE ( 'NONE', #234, 2.100000000000000089 ) ;
#96 = CARTESIAN_POINT ( 'NONE',  ( 0.000000000000000000, 0.000000000000000000, 3.000000000000000000 ) ) ;
#97 = CC_DESIGN_APPROVAL ( #102, ( #190 ) ) ;
#98 = DIRECTION ( 'NONE',  ( -0.000000000000000000, -0.000000000000000000, -1.000000000000000000 ) ) ;
#99 = PRODUCT_DEFINITION_SHAPE ( 'NONE', 'NONE',  #44 ) ;
#100 = APPROVAL_ROLE ( '' ) ;
#101 = CALENDAR_DATE ( 2023, 13, 2 ) ;
#102 = APPROVAL ( #82, 'NEURÈENÝ' ) ;
#103 = DIRECTION ( 'NONE',  ( 1.000000000000000000, 0.000000000000000000, -0.000000000000000000 ) ) ;
#104 = ORIENTED_EDGE ( 'NONE', *, *, #246, .T. ) ;
#105 = CIRCLE ( 'NONE', #242, 4.000000000000000000 ) ;
#106 = EDGE_LOOP ( 'NONE', ( #148, #203 ) ) ;
#107 = DIRECTION ( 'NONE',  ( 1.000000000000000000, 0.000000000000000000, 0.000000000000000000 ) ) ;
#108 = ORIENTED_EDGE ( 'NONE', *, *, #77, .T. ) ;
#109 = AXIS2_PLACEMENT_3D ( 'NONE', #115, #38, #75 ) ;
#110 = DIRECTION ( 'NONE',  ( 1.000000000000000000, 0.000000000000000000, -0.000000000000000000 ) ) ;
#111 = LOCAL_TIME ( 17, 7, 59.00000000000000000, #178 ) ;
#112 = APPROVAL ( #120, 'NEURÈENÝ' ) ;
#113 = DIRECTION ( 'NONE',  ( -0.000000000000000000, -0.000000000000000000, -1.000000000000000000 ) ) ;
#114 = CARTESIAN_POINT ( 'NONE',  ( 4.000000000000000000, 4.898587196589412829E-16, 0.000000000000000000 ) ) ;
#115 = CARTESIAN_POINT ( 'NONE',  ( 0.000000000000000000, 0.000000000000000000, 3.000000000000000000 ) ) ;
#116 = CC_DESIGN_PERSON_AND_ORGANIZATION_ASSIGNMENT ( #56, #193, ( #190 ) ) ;
#117 =( NAMED_UNIT ( * ) PLANE_ANGLE_UNIT ( ) SI_UNIT ( $, .RADIAN. ) );
#118 = COORDINATED_UNIVERSAL_TIME_OFFSET ( 1, 0, .AHEAD. ) ;
#119 = ADVANCED_FACE ( 'NONE', ( #207 ), #51, .T. ) ;
#120 = APPROVAL_STATUS ( 'not_yet_approved' ) ;
#121 = CIRCLE ( 'NONE', #195, 4.000000000000000000 ) ;
#122 = MECHANICAL_CONTEXT ( 'NONE', #254, 'mechanical' ) ;
#123 = APPLICATION_PROTOCOL_DEFINITION ( 'international standard', 'config_control_design', 1994, #206 ) ;
#124 = CC_DESIGN_DATE_AND_TIME_ASSIGNMENT ( #214, #158, ( #44 ) ) ;
#125 = SECURITY_CLASSIFICATION ( '', '', #194 ) ;
#126 = VERTEX_POINT ( 'NONE', #249 ) ;
#127 = ORIENTED_EDGE ( 'NONE', *, *, #52, .F. ) ;
#128 = EDGE_LOOP ( 'NONE', ( #243, #57, #186, #108 ) ) ;
#129 = CARTESIAN_POINT ( 'NONE',  ( -4.000000000000000000, 0.000000000000000000, 0.000000000000000000 ) ) ;
#130 = DIRECTION ( 'NONE',  ( -1.000000000000000000, 0.000000000000000000, 0.000000000000000000 ) ) ;
#131 = DIRECTION ( 'NONE',  ( 1.000000000000000000, 0.000000000000000000, 0.000000000000000000 ) ) ;
#132 = LINE ( 'NONE', #54, #87 ) ;
#133 = PLANE ( 'NONE',  #109 ) ;
#134 = FACE_OUTER_BOUND ( 'NONE', #241, .T. ) ;
#135 = CIRCLE ( 'NONE', #23, 4.000000000000000000 ) ;
#136 = CARTESIAN_POINT ( 'NONE',  ( 0.000000000000000000, 0.000000000000000000, 3.000000000000000000 ) ) ;
#137 = APPROVAL_PERSON_ORGANIZATION ( #43, #112, #100 ) ;
#138 = PRODUCT ( '1271', '1271', '', ( #122 ) ) ;
#139 = CALENDAR_DATE ( 2023, 13, 2 ) ;
#140 = ORIENTED_EDGE ( 'NONE', *, *, #204, .T. ) ;
#141 = APPROVAL_ROLE ( '' ) ;
#142 = ORIENTED_EDGE ( 'NONE', *, *, #52, .T. ) ;
#143 = CALENDAR_DATE ( 2023, 13, 2 ) ;
#144 = CIRCLE ( 'NONE', #149, 2.100000000000000089 ) ;
#145 = EDGE_LOOP ( 'NONE', ( #220, #127, #140, #27 ) ) ;
#146 = DIRECTION ( 'NONE',  ( 0.000000000000000000, 0.000000000000000000, 1.000000000000000000 ) ) ;
#147 = CARTESIAN_POINT ( 'NONE',  ( 0.000000000000000000, 0.000000000000000000, 3.000000000000000000 ) ) ;
#148 = ORIENTED_EDGE ( 'NONE', *, *, #2, .T. ) ;
#149 = AXIS2_PLACEMENT_3D ( 'NONE', #180, #48, #182 ) ;
#150 = CARTESIAN_POINT ( 'NONE',  ( 0.000000000000000000, 0.000000000000000000, 315.0000000000000000 ) ) ;
#151 = CARTESIAN_POINT ( 'NONE',  ( 0.000000000000000000, 0.000000000000000000, 3.000000000000000000 ) ) ;
#152 = ADVANCED_FACE ( 'NONE', ( #134 ), #210, .T. ) ;
#153 = CARTESIAN_POINT ( 'NONE',  ( -4.000000000000000000, 0.000000000000000000, 3.000000000000000000 ) ) ;
#154 = DIRECTION ( 'NONE',  ( -0.000000000000000000, -0.000000000000000000, -1.000000000000000000 ) ) ;
#155 = AXIS2_PLACEMENT_3D ( 'NONE', #136, #53, #208 ) ;
#156 = DIRECTION ( 'NONE',  ( 0.000000000000000000, 0.000000000000000000, 1.000000000000000000 ) ) ;
#157 = DIRECTION ( 'NONE',  ( 0.000000000000000000, 0.000000000000000000, 1.000000000000000000 ) ) ;
#158 = DATE_TIME_ROLE ( 'creation_date' ) ;
#159 = ADVANCED_BREP_SHAPE_REPRESENTATION ( '1271', ( #209, #36 ), #69 ) ;
#160 = APPROVAL_STATUS ( 'not_yet_approved' ) ;
#161 = PERSON_AND_ORGANIZATION_ROLE ( 'creator' ) ;
#162 = DIRECTION ( 'NONE',  ( 0.000000000000000000, 0.000000000000000000, 1.000000000000000000 ) ) ;
#163 = ADVANCED_FACE ( 'NONE', ( #40, #74 ), #133, .T. ) ;
#164 = VERTEX_POINT ( 'NONE', #37 ) ;
#165 = EDGE_LOOP ( 'NONE', ( #86, #7, #201, #46 ) ) ;
#166 = VERTEX_POINT ( 'NONE', #250 ) ;
#167 = CC_DESIGN_SECURITY_CLASSIFICATION ( #125, ( #190 ) ) ;
#168 = EDGE_CURVE ( 'NONE', #59, #126, #76, .T. ) ;
#169 = FACE_OUTER_BOUND ( 'NONE', #145, .T. ) ;
#170 = VECTOR ( 'NONE', #225, 1000.000000000000000 ) ;
#171 = CYLINDRICAL_SURFACE ( 'NONE', #155, 4.000000000000000000 ) ;
#172 = CARTESIAN_POINT ( 'NONE',  ( 0.000000000000000000, 0.000000000000000000, 315.0000000000000000 ) ) ;
#173 = PERSON_AND_ORGANIZATION_ROLE ( 'design_owner' ) ;
#174 = CIRCLE ( 'NONE', #61, 4.000000000000000000 ) ;
#175 = EDGE_CURVE ( 'NONE', #184, #89, #16, .T. ) ;
#176 = AXIS2_PLACEMENT_3D ( 'NONE', #96, #157, #15 ) ;
#177 = DATE_AND_TIME ( #217, #24 ) ;
#178 = COORDINATED_UNIVERSAL_TIME_OFFSET ( 1, 0, .AHEAD. ) ;
#179 = PERSON_AND_ORGANIZATION ( #71, #31 ) ;
#180 = CARTESIAN_POINT ( 'NONE',  ( 0.000000000000000000, 0.000000000000000000, 315.0000000000000000 ) ) ;
#181 = AXIS2_PLACEMENT_3D ( 'NONE', #240, #162, #107 ) ;
#182 = DIRECTION ( 'NONE',  ( 1.000000000000000000, 0.000000000000000000, 0.000000000000000000 ) ) ;
#183 = LOCAL_TIME ( 17, 7, 59.00000000000000000, #198 ) ;
#184 = VERTEX_POINT ( 'NONE', #191 ) ;
#185 = PLANE ( 'NONE',  #211 ) ;
#186 = ORIENTED_EDGE ( 'NONE', *, *, #85, .T. ) ;
#187 = CARTESIAN_POINT ( 'NONE',  ( 0.000000000000000000, 0.000000000000000000, 0.000000000000000000 ) ) ;
#188 = CC_DESIGN_PERSON_AND_ORGANIZATION_ASSIGNMENT ( #235, #41, ( #125 ) ) ;
#189 = FACE_OUTER_BOUND ( 'NONE', #83, .T. ) ;
#190 = PRODUCT_DEFINITION_FORMATION_WITH_SPECIFIED_SOURCE ( 'LIBOVOLNÝ', '', #138, .NOT_KNOWN. ) ;
#191 = CARTESIAN_POINT ( 'NONE',  ( 4.000000000000000000, 4.898587196589412829E-16, 3.000000000000000000 ) ) ;
#192 = CC_DESIGN_PERSON_AND_ORGANIZATION_ASSIGNMENT ( #21, #62, ( #44 ) ) ;
#193 = PERSON_AND_ORGANIZATION_ROLE ( 'design_supplier' ) ;
#194 = SECURITY_CLASSIFICATION_LEVEL ( 'unclassified' ) ;
#195 = AXIS2_PLACEMENT_3D ( 'NONE', #245, #49, #131 ) ;
#196 = APPROVAL_DATE_TIME ( #177, #112 ) ;
#197 = CC_DESIGN_DATE_AND_TIME_ASSIGNMENT ( #253, #42, ( #125 ) ) ;
#198 = COORDINATED_UNIVERSAL_TIME_OFFSET ( 1, 0, .AHEAD. ) ;
#199 = EDGE_LOOP ( 'NONE', ( #45, #65 ) ) ;
#200 = EDGE_CURVE ( 'NONE', #126, #164, #10, .T. ) ;
#201 = ORIENTED_EDGE ( 'NONE', *, *, #200, .T. ) ;
#202 = ORIENTED_EDGE ( 'NONE', *, *, #11, .F. ) ;
#203 = ORIENTED_EDGE ( 'NONE', *, *, #20, .T. ) ;
#204 = EDGE_CURVE ( 'NONE', #88, #32, #132, .T. ) ;
#205 = DIRECTION ( 'NONE',  ( 1.000000000000000000, 0.000000000000000000, 0.000000000000000000 ) ) ;
#206 = APPLICATION_CONTEXT ( 'configuration controlled 3d designs of mechanical parts and assemblies' ) ;
#207 = FACE_OUTER_BOUND ( 'NONE', #165, .T. ) ;
#208 = DIRECTION ( 'NONE',  ( -1.000000000000000000, 0.000000000000000000, 0.000000000000000000 ) ) ;
#209 = MANIFOLD_SOLID_BREP ( 'Pøidat vysunutím3', #226 ) ;
#210 = CYLINDRICAL_SURFACE ( 'NONE', #29, 4.000000000000000000 ) ;
#211 = AXIS2_PLACEMENT_3D ( 'NONE', #8, #4, #103 ) ;
#212 =( LENGTH_UNIT ( ) NAMED_UNIT ( * ) SI_UNIT ( .MILLI., .METRE. ) );
#213 = APPROVAL ( #160, 'NEURÈENÝ' ) ;
#214 = DATE_AND_TIME ( #101, #183 ) ;
#215 = PERSON_AND_ORGANIZATION ( #71, #31 ) ;
#216 = PERSON_AND_ORGANIZATION ( #71, #31 ) ;
#217 = CALENDAR_DATE ( 2023, 13, 2 ) ;
#218 = DIRECTION ( 'NONE',  ( 1.000000000000000000, 0.000000000000000000, 0.000000000000000000 ) ) ;
#219 = FACE_OUTER_BOUND ( 'NONE', #106, .T. ) ;
#220 = ORIENTED_EDGE ( 'NONE', *, *, #175, .F. ) ;
#221 = VECTOR ( 'NONE', #113, 1000.000000000000000 ) ;
#222 = ORIENTED_EDGE ( 'NONE', *, *, #90, .T. ) ;
#223 = DIRECTION ( 'NONE',  ( -0.000000000000000000, -0.000000000000000000, -1.000000000000000000 ) ) ;
#224 = DIRECTION ( 'NONE',  ( -0.000000000000000000, -0.000000000000000000, -1.000000000000000000 ) ) ;
#225 = DIRECTION ( 'NONE',  ( -0.000000000000000000, -0.000000000000000000, -1.000000000000000000 ) ) ;
#226 = CLOSED_SHELL ( 'NONE', ( #119, #152, #237, #163, #233, #73, #34 ) ) ;
#227 = APPROVAL_PERSON_ORGANIZATION ( #216, #102, #141 ) ;
#228 = CARTESIAN_POINT ( 'NONE',  ( 4.000000000000000000, 4.898587196589412829E-16, 3.000000000000000000 ) ) ;
#229 = DIRECTION ( 'NONE',  ( 1.000000000000000000, 0.000000000000000000, 0.000000000000000000 ) ) ;
#230 = VECTOR ( 'NONE', #14, 1000.000000000000000 ) ;
#231 = DATE_AND_TIME ( #139, #18 ) ;
#232 = CALENDAR_DATE ( 2023, 13, 2 ) ;
#233 = ADVANCED_FACE ( 'NONE', ( #189 ), #72, .F. ) ;
#234 = AXIS2_PLACEMENT_3D ( 'NONE', #3, #146, #33 ) ;
#235 = PERSON_AND_ORGANIZATION ( #71, #31 ) ;
#236 = DATE_AND_TIME ( #232, #111 ) ;
#237 = ADVANCED_FACE ( 'NONE', ( #169 ), #171, .T. ) ;
#238 = DIRECTION ( 'NONE',  ( 0.000000000000000000, 0.000000000000000000, 1.000000000000000000 ) ) ;
#239 = EDGE_LOOP ( 'NONE', ( #142, #104 ) ) ;
#240 = CARTESIAN_POINT ( 'NONE',  ( 0.000000000000000000, 0.000000000000000000, 315.0000000000000000 ) ) ;
#241 = EDGE_LOOP ( 'NONE', ( #66, #67, #222, #30 ) ) ;
#242 = AXIS2_PLACEMENT_3D ( 'NONE', #93, #238, #205 ) ;
#243 = ORIENTED_EDGE ( 'NONE', *, *, #168, .F. ) ;
#244 = CC_DESIGN_APPROVAL ( #213, ( #44 ) ) ;
#245 = CARTESIAN_POINT ( 'NONE',  ( 0.000000000000000000, 0.000000000000000000, 3.000000000000000000 ) ) ;
#246 = EDGE_CURVE ( 'NONE', #184, #88, #121, .T. ) ;
#247 = CARTESIAN_POINT ( 'NONE',  ( 2.100000000000000089, 2.571758278209441957E-16, 315.0000000000000000 ) ) ;
#248 = APPROVAL_PERSON_ORGANIZATION ( #79, #213, #251 ) ;
#249 = CARTESIAN_POINT ( 'NONE',  ( 2.100000000000000089, 2.571758278209441957E-16, 3.000000000000000000 ) ) ;
#250 = CARTESIAN_POINT ( 'NONE',  ( -2.100000000000000089, 0.000000000000000000, 315.0000000000000000 ) ) ;
#251 = APPROVAL_ROLE ( '' ) ;
#252 = DESIGN_CONTEXT ( 'detailed design', #206, 'design' ) ;
#253 = DATE_AND_TIME ( #143, #81 ) ;
#254 = APPLICATION_CONTEXT ( 'configuration controlled 3d designs of mechanical parts and assemblies' ) ;
#255 = SHAPE_DEFINITION_REPRESENTATION ( #99, #159 ) ;
ENDSEC;
END-ISO-10303-21;
