ISO-10303-21;
HEADER;
FILE_DESCRIPTION (( 'STEP AP203' ),
    '1' );
FILE_NAME ('daac.STEP',
    '2023-02-13T13:50:57',
    ( '' ),
    ( '' ),
    'SwSTEP 2.0',
    'SolidWorks 2019',
    '' );
FILE_SCHEMA (( 'CONFIG_CONTROL_DESIGN' ));
ENDSEC;

DATA;
#1 = APPLICATION_CONTEXT ( 'configuration controlled 3d designs of mechanical parts and assemblies' ) ;
#2 = PERSON_AND_ORGANIZATION ( #248, #253 ) ;
#3 = CALENDAR_DATE ( 2023, 13, 2 ) ;
#4 = ORIENTED_EDGE ( 'NONE', *, *, #191, .T. ) ;
#5 = AXIS2_PLACEMENT_3D ( 'NONE', #128, #35, #115 ) ;
#6 = ORIENTED_EDGE ( 'NONE', *, *, #173, .T. ) ;
#7 = VERTEX_POINT ( 'NONE', #70 ) ;
#8 = EDGE_LOOP ( 'NONE', ( #65, #179, #235, #176 ) ) ;
#9 =( NAMED_UNIT ( * ) SI_UNIT ( $, .STERADIAN. ) SOLID_ANGLE_UNIT ( ) );
#10 = DIRECTION ( 'NONE',  ( 0.000000000000000000, 0.000000000000000000, 1.000000000000000000 ) ) ;
#11 = DIRECTION ( 'NONE',  ( -0.000000000000000000, -0.000000000000000000, -1.000000000000000000 ) ) ;
#12 = APPROVAL_PERSON_ORGANIZATION ( #134, #16, #22 ) ;
#13 = CLOSED_SHELL ( 'NONE', ( #149, #163, #244, #127, #211, #124, #34 ) ) ;
#14 = CARTESIAN_POINT ( 'NONE',  ( 0.000000000000000000, 0.000000000000000000, 400.0000000000000000 ) ) ;
#15 = EDGE_LOOP ( 'NONE', ( #119, #139, #6, #199 ) ) ;
#16 = APPROVAL ( #196, 'NEURÈENÝ' ) ;
#17 = AXIS2_PLACEMENT_3D ( 'NONE', #151, #231, #129 ) ;
#18 = EDGE_CURVE ( 'NONE', #135, #108, #43, .T. ) ;
#19 = CC_DESIGN_APPROVAL ( #16, ( #30 ) ) ;
#20 = DATE_AND_TIME ( #82, #125 ) ;
#21 = ORIENTED_EDGE ( 'NONE', *, *, #18, .T. ) ;
#22 = APPROVAL_ROLE ( '' ) ;
#23 = PERSON_AND_ORGANIZATION_ROLE ( 'classification_officer' ) ;
#24 = AXIS2_PLACEMENT_3D ( 'NONE', #247, #39, #38 ) ;
#25 = ORIENTED_EDGE ( 'NONE', *, *, #78, .F. ) ;
#26 = CARTESIAN_POINT ( 'NONE',  ( 0.000000000000000000, 0.000000000000000000, 5.000000000000000000 ) ) ;
#27 = FACE_OUTER_BOUND ( 'NONE', #104, .T. ) ;
#28 = AXIS2_PLACEMENT_3D ( 'NONE', #246, #188, #221 ) ;
#29 = DIRECTION ( 'NONE',  ( -0.000000000000000000, -0.000000000000000000, -1.000000000000000000 ) ) ;
#30 = SECURITY_CLASSIFICATION ( '', '', #80 ) ;
#31 = ADVANCED_BREP_SHAPE_REPRESENTATION ( 'daac', ( #110, #198 ), #71 ) ;
#32 = DIRECTION ( 'NONE',  ( 0.000000000000000000, 0.000000000000000000, 1.000000000000000000 ) ) ;
#33 = CARTESIAN_POINT ( 'NONE',  ( 0.000000000000000000, 0.000000000000000000, 400.0000000000000000 ) ) ;
#34 = ADVANCED_FACE ( 'NONE', ( #201 ), #74, .T. ) ;
#35 = DIRECTION ( 'NONE',  ( -0.000000000000000000, -0.000000000000000000, -1.000000000000000000 ) ) ;
#36 = CARTESIAN_POINT ( 'NONE',  ( 7.000000000000000000, 8.572527594031473190E-16, 0.000000000000000000 ) ) ;
#37 = CIRCLE ( 'NONE', #215, 4.500000000000000000 ) ;
#38 = DIRECTION ( 'NONE',  ( 1.000000000000000000, 0.000000000000000000, -0.000000000000000000 ) ) ;
#39 = DIRECTION ( 'NONE',  ( 0.000000000000000000, 0.000000000000000000, 1.000000000000000000 ) ) ;
#40 = EDGE_CURVE ( 'NONE', #178, #154, #186, .T. ) ;
#41 = LOCAL_TIME ( 14, 50, 57.00000000000000000, #174 ) ;
#42 = VECTOR ( 'NONE', #185, 1000.000000000000000 ) ;
#43 = CIRCLE ( 'NONE', #250, 4.500000000000000000 ) ;
#44 = PERSON_AND_ORGANIZATION ( #248, #253 ) ;
#45 = EDGE_LOOP ( 'NONE', ( #21, #156 ) ) ;
#46 = APPROVAL ( #195, 'NEURÈENÝ' ) ;
#47 = CALENDAR_DATE ( 2023, 13, 2 ) ;
#48 = ORIENTED_EDGE ( 'NONE', *, *, #118, .F. ) ;
#49 = CIRCLE ( 'NONE', #242, 4.500000000000000000 ) ;
#50 = APPLICATION_CONTEXT ( 'configuration controlled 3d designs of mechanical parts and assemblies' ) ;
#51 = VERTEX_POINT ( 'NONE', #161 ) ;
#52 = DATE_AND_TIME ( #47, #41 ) ;
#53 = DIRECTION ( 'NONE',  ( 0.000000000000000000, 0.000000000000000000, 1.000000000000000000 ) ) ;
#54 = CYLINDRICAL_SURFACE ( 'NONE', #5, 7.000000000000000000 ) ;
#55 = EDGE_CURVE ( 'NONE', #51, #178, #177, .T. ) ;
#56 = LINE ( 'NONE', #122, #42 ) ;
#57 = PERSON_AND_ORGANIZATION ( #248, #253 ) ;
#58 = CC_DESIGN_PERSON_AND_ORGANIZATION_ASSIGNMENT ( #57, #23, ( #30 ) ) ;
#59 = AXIS2_PLACEMENT_3D ( 'NONE', #107, #183, #228 ) ;
#60 = DATE_TIME_ROLE ( 'classification_date' ) ;
#61 = ORIENTED_EDGE ( 'NONE', *, *, #55, .F. ) ;
#62 = EDGE_LOOP ( 'NONE', ( #98, #175, #137, #84 ) ) ;
#63 = PRODUCT_DEFINITION ( 'NEZNÁMÝ', '', #132, #170 ) ;
#64 = LOCAL_TIME ( 14, 50, 57.00000000000000000, #216 ) ;
#65 = ORIENTED_EDGE ( 'NONE', *, *, #162, .F. ) ;
#66 = APPLICATION_PROTOCOL_DEFINITION ( 'international standard', 'config_control_design', 1994, #1 ) ;
#67 = APPROVAL_ROLE ( '' ) ;
#68 = LINE ( 'NONE', #73, #140 ) ;
#69 = CC_DESIGN_APPROVAL ( #207, ( #132 ) ) ;
#70 = CARTESIAN_POINT ( 'NONE',  ( 4.500000000000000000, 5.510910596163087583E-16, 5.000000000000000000 ) ) ;
#71 =( GEOMETRIC_REPRESENTATION_CONTEXT ( 3 ) GLOBAL_UNCERTAINTY_ASSIGNED_CONTEXT ( ( #94 ) ) GLOBAL_UNIT_ASSIGNED_CONTEXT ( ( #225, #112, #9 ) ) REPRESENTATION_CONTEXT ( 'NONE', 'WORKASPACE' ) );
#72 = CIRCLE ( 'NONE', #213, 7.000000000000000000 ) ;
#73 = CARTESIAN_POINT ( 'NONE',  ( -7.000000000000000000, 0.000000000000000000, 5.000000000000000000 ) ) ;
#74 = PLANE ( 'NONE',  #150 ) ;
#75 = DIRECTION ( 'NONE',  ( 1.000000000000000000, 0.000000000000000000, 0.000000000000000000 ) ) ;
#76 = DATE_AND_TIME ( #91, #233 ) ;
#77 = COORDINATED_UNIVERSAL_TIME_OFFSET ( 1, 0, .AHEAD. ) ;
#78 = EDGE_CURVE ( 'NONE', #157, #154, #168, .T. ) ;
#79 = CARTESIAN_POINT ( 'NONE',  ( 7.000000000000000000, 8.572527594031473190E-16, 5.000000000000000000 ) ) ;
#80 = SECURITY_CLASSIFICATION_LEVEL ( 'unclassified' ) ;
#81 = PERSON_AND_ORGANIZATION_ROLE ( 'creator' ) ;
#82 = CALENDAR_DATE ( 2023, 13, 2 ) ;
#83 = ORIENTED_EDGE ( 'NONE', *, *, #40, .F. ) ;
#84 = ORIENTED_EDGE ( 'NONE', *, *, #191, .F. ) ;
#85 = PRODUCT_DEFINITION_SHAPE ( 'NONE', 'NONE',  #63 ) ;
#86 = DIRECTION ( 'NONE',  ( 1.000000000000000000, 0.000000000000000000, 0.000000000000000000 ) ) ;
#87 = DIRECTION ( 'NONE',  ( 1.000000000000000000, 0.000000000000000000, -0.000000000000000000 ) ) ;
#88 = DIRECTION ( 'NONE',  ( -0.000000000000000000, -0.000000000000000000, -1.000000000000000000 ) ) ;
#89 = DIRECTION ( 'NONE',  ( 1.000000000000000000, 0.000000000000000000, 0.000000000000000000 ) ) ;
#90 = LINE ( 'NONE', #167, #147 ) ;
#91 = CALENDAR_DATE ( 2023, 13, 2 ) ;
#92 = DIRECTION ( 'NONE',  ( -0.000000000000000000, -0.000000000000000000, -1.000000000000000000 ) ) ;
#93 = EDGE_CURVE ( 'NONE', #178, #51, #255, .T. ) ;
#94 = UNCERTAINTY_MEASURE_WITH_UNIT (LENGTH_MEASURE( 1.000000000000000082E-05 ), #225, 'distance_accuracy_value', 'NONE');
#95 = CYLINDRICAL_SURFACE ( 'NONE', #17, 4.500000000000000000 ) ;
#96 = APPROVAL_DATE_TIME ( #52, #207 ) ;
#97 = PERSON_AND_ORGANIZATION_ROLE ( 'creator' ) ;
#98 = ORIENTED_EDGE ( 'NONE', *, *, #93, .F. ) ;
#99 = APPROVAL_STATUS ( 'not_yet_approved' ) ;
#100 = ORIENTED_EDGE ( 'NONE', *, *, #78, .T. ) ;
#101 = EDGE_LOOP ( 'NONE', ( #121, #197 ) ) ;
#102 = AXIS2_PLACEMENT_3D ( 'NONE', #33, #92, #254 ) ;
#103 = DIRECTION ( 'NONE',  ( 1.000000000000000000, 0.000000000000000000, 0.000000000000000000 ) ) ;
#104 = EDGE_LOOP ( 'NONE', ( #83, #61, #4, #100 ) ) ;
#105 = CC_DESIGN_PERSON_AND_ORGANIZATION_ASSIGNMENT ( #2, #237, ( #132 ) ) ;
#106 = CYLINDRICAL_SURFACE ( 'NONE', #223, 7.000000000000000000 ) ;
#107 = CARTESIAN_POINT ( 'NONE',  ( 0.000000000000000000, 0.000000000000000000, 0.000000000000000000 ) ) ;
#108 = VERTEX_POINT ( 'NONE', #241 ) ;
#109 = CC_DESIGN_PERSON_AND_ORGANIZATION_ASSIGNMENT ( #114, #187, ( #180 ) ) ;
#110 = MANIFOLD_SOLID_BREP ( 'Pøidat vysunutím3', #13 ) ;
#111 = APPROVAL_DATE_TIME ( #76, #16 ) ;
#112 =( NAMED_UNIT ( * ) PLANE_ANGLE_UNIT ( ) SI_UNIT ( $, .RADIAN. ) );
#113 = EDGE_CURVE ( 'NONE', #154, #157, #72, .T. ) ;
#114 = PERSON_AND_ORGANIZATION ( #248, #253 ) ;
#115 = DIRECTION ( 'NONE',  ( -1.000000000000000000, 0.000000000000000000, 0.000000000000000000 ) ) ;
#116 = PERSON_AND_ORGANIZATION ( #248, #253 ) ;
#117 = CIRCLE ( 'NONE', #136, 4.500000000000000000 ) ;
#118 = EDGE_CURVE ( 'NONE', #131, #7, #49, .T. ) ;
#119 = ORIENTED_EDGE ( 'NONE', *, *, #184, .F. ) ;
#120 = VECTOR ( 'NONE', #29, 1000.000000000000000 ) ;
#121 = ORIENTED_EDGE ( 'NONE', *, *, #55, .T. ) ;
#122 = CARTESIAN_POINT ( 'NONE',  ( 4.500000000000000000, 5.510910596163087583E-16, 400.0000000000000000 ) ) ;
#123 = CARTESIAN_POINT ( 'NONE',  ( 7.000000000000000000, 8.572527594031473190E-16, 5.000000000000000000 ) ) ;
#124 = ADVANCED_FACE ( 'NONE', ( #206 ), #164, .T. ) ;
#125 = LOCAL_TIME ( 14, 50, 57.00000000000000000, #155 ) ;
#126 = DIRECTION ( 'NONE',  ( 0.000000000000000000, 0.000000000000000000, 1.000000000000000000 ) ) ;
#127 = ADVANCED_FACE ( 'NONE', ( #169, #212 ), #230, .T. ) ;
#128 = CARTESIAN_POINT ( 'NONE',  ( 0.000000000000000000, 0.000000000000000000, 5.000000000000000000 ) ) ;
#129 = DIRECTION ( 'NONE',  ( -1.000000000000000000, 0.000000000000000000, 0.000000000000000000 ) ) ;
#130 = COORDINATED_UNIVERSAL_TIME_OFFSET ( 1, 0, .AHEAD. ) ;
#131 = VERTEX_POINT ( 'NONE', #229 ) ;
#132 = PRODUCT_DEFINITION_FORMATION_WITH_SPECIFIED_SOURCE ( 'LIBOVOLNÝ', '', #180, .NOT_KNOWN. ) ;
#133 = DIRECTION ( 'NONE',  ( -0.000000000000000000, -0.000000000000000000, -1.000000000000000000 ) ) ;
#134 = PERSON_AND_ORGANIZATION ( #248, #253 ) ;
#135 = VERTEX_POINT ( 'NONE', #252 ) ;
#136 = AXIS2_PLACEMENT_3D ( 'NONE', #193, #166, #75 ) ;
#137 = ORIENTED_EDGE ( 'NONE', *, *, #113, .T. ) ;
#138 = PLANE ( 'NONE',  #181 ) ;
#139 = ORIENTED_EDGE ( 'NONE', *, *, #18, .F. ) ;
#140 = VECTOR ( 'NONE', #11, 1000.000000000000000 ) ;
#141 = DATE_AND_TIME ( #3, #64 ) ;
#142 = DIRECTION ( 'NONE',  ( 0.000000000000000000, 0.000000000000000000, 1.000000000000000000 ) ) ;
#143 = DIRECTION ( 'NONE',  ( 1.000000000000000000, 0.000000000000000000, 0.000000000000000000 ) ) ;
#144 = CARTESIAN_POINT ( 'NONE',  ( 0.000000000000000000, 0.000000000000000000, 5.000000000000000000 ) ) ;
#145 = CARTESIAN_POINT ( 'NONE',  ( 0.000000000000000000, 0.000000000000000000, 0.000000000000000000 ) ) ;
#146 = FACE_OUTER_BOUND ( 'NONE', #62, .T. ) ;
#147 = VECTOR ( 'NONE', #133, 1000.000000000000000 ) ;
#148 = CC_DESIGN_PERSON_AND_ORGANIZATION_ASSIGNMENT ( #172, #97, ( #132 ) ) ;
#149 = ADVANCED_FACE ( 'NONE', ( #190 ), #95, .T. ) ;
#150 = AXIS2_PLACEMENT_3D ( 'NONE', #14, #239, #87 ) ;
#151 = CARTESIAN_POINT ( 'NONE',  ( 0.000000000000000000, 0.000000000000000000, 400.0000000000000000 ) ) ;
#152 = CALENDAR_DATE ( 2023, 13, 2 ) ;
#153 = ORIENTED_EDGE ( 'NONE', *, *, #220, .F. ) ;
#154 = VERTEX_POINT ( 'NONE', #36 ) ;
#155 = COORDINATED_UNIVERSAL_TIME_OFFSET ( 1, 0, .AHEAD. ) ;
#156 = ORIENTED_EDGE ( 'NONE', *, *, #162, .T. ) ;
#157 = VERTEX_POINT ( 'NONE', #214 ) ;
#158 = FACE_OUTER_BOUND ( 'NONE', #219, .T. ) ;
#159 = CARTESIAN_POINT ( 'NONE',  ( 0.000000000000000000, 0.000000000000000000, 5.000000000000000000 ) ) ;
#160 = PERSON_AND_ORGANIZATION ( #248, #253 ) ;
#161 = CARTESIAN_POINT ( 'NONE',  ( -7.000000000000000000, 0.000000000000000000, 5.000000000000000000 ) ) ;
#162 = EDGE_CURVE ( 'NONE', #108, #135, #117, .T. ) ;
#163 = ADVANCED_FACE ( 'NONE', ( #146 ), #54, .T. ) ;
#164 = CYLINDRICAL_SURFACE ( 'NONE', #102, 4.500000000000000000 ) ;
#165 = MECHANICAL_CONTEXT ( 'NONE', #1, 'mechanical' ) ;
#166 = DIRECTION ( 'NONE',  ( 0.000000000000000000, 0.000000000000000000, 1.000000000000000000 ) ) ;
#167 = CARTESIAN_POINT ( 'NONE',  ( -4.500000000000000000, 0.000000000000000000, 400.0000000000000000 ) ) ;
#168 = CIRCLE ( 'NONE', #59, 7.000000000000000000 ) ;
#169 = FACE_BOUND ( 'NONE', #217, .T. ) ;
#170 = DESIGN_CONTEXT ( 'detailed design', #50, 'design' ) ;
#171 = APPROVAL_PERSON_ORGANIZATION ( #160, #46, #67 ) ;
#172 = PERSON_AND_ORGANIZATION ( #248, #253 ) ;
#173 = EDGE_CURVE ( 'NONE', #135, #131, #90, .T. ) ;
#174 = COORDINATED_UNIVERSAL_TIME_OFFSET ( 1, 0, .AHEAD. ) ;
#175 = ORIENTED_EDGE ( 'NONE', *, *, #40, .T. ) ;
#176 = ORIENTED_EDGE ( 'NONE', *, *, #173, .F. ) ;
#177 = CIRCLE ( 'NONE', #28, 7.000000000000000000 ) ;
#178 = VERTEX_POINT ( 'NONE', #79 ) ;
#179 = ORIENTED_EDGE ( 'NONE', *, *, #184, .T. ) ;
#180 = PRODUCT ( 'daac', 'daac', '', ( #165 ) ) ;
#181 = AXIS2_PLACEMENT_3D ( 'NONE', #227, #126, #200 ) ;
#182 = CARTESIAN_POINT ( 'NONE',  ( 0.000000000000000000, 0.000000000000000000, 0.000000000000000000 ) ) ;
#183 = DIRECTION ( 'NONE',  ( 0.000000000000000000, 0.000000000000000000, 1.000000000000000000 ) ) ;
#184 = EDGE_CURVE ( 'NONE', #108, #7, #56, .T. ) ;
#185 = DIRECTION ( 'NONE',  ( -0.000000000000000000, -0.000000000000000000, -1.000000000000000000 ) ) ;
#186 = LINE ( 'NONE', #123, #120 ) ;
#187 = PERSON_AND_ORGANIZATION_ROLE ( 'design_owner' ) ;
#188 = DIRECTION ( 'NONE',  ( 0.000000000000000000, 0.000000000000000000, 1.000000000000000000 ) ) ;
#189 = LOCAL_TIME ( 14, 50, 57.00000000000000000, #130 ) ;
#190 = FACE_OUTER_BOUND ( 'NONE', #8, .T. ) ;
#191 = EDGE_CURVE ( 'NONE', #51, #157, #68, .T. ) ;
#192 = CC_DESIGN_APPROVAL ( #46, ( #63 ) ) ;
#193 = CARTESIAN_POINT ( 'NONE',  ( 0.000000000000000000, 0.000000000000000000, 400.0000000000000000 ) ) ;
#194 = CC_DESIGN_DATE_AND_TIME_ASSIGNMENT ( #20, #236, ( #63 ) ) ;
#195 = APPROVAL_STATUS ( 'not_yet_approved' ) ;
#196 = APPROVAL_STATUS ( 'not_yet_approved' ) ;
#197 = ORIENTED_EDGE ( 'NONE', *, *, #93, .T. ) ;
#198 = AXIS2_PLACEMENT_3D ( 'NONE', #145, #32, #209 ) ;
#199 = ORIENTED_EDGE ( 'NONE', *, *, #118, .T. ) ;
#200 = DIRECTION ( 'NONE',  ( 1.000000000000000000, 0.000000000000000000, -0.000000000000000000 ) ) ;
#201 = FACE_OUTER_BOUND ( 'NONE', #45, .T. ) ;
#202 = AXIS2_PLACEMENT_3D ( 'NONE', #144, #10, #210 ) ;
#203 = PRODUCT_RELATED_PRODUCT_CATEGORY ( 'detail', '', ( #180 ) ) ;
#204 = DIRECTION ( 'NONE',  ( 0.000000000000000000, 0.000000000000000000, 1.000000000000000000 ) ) ;
#205 = CARTESIAN_POINT ( 'NONE',  ( 0.000000000000000000, 0.000000000000000000, 400.0000000000000000 ) ) ;
#206 = FACE_OUTER_BOUND ( 'NONE', #15, .T. ) ;
#207 = APPROVAL ( #99, 'NEURÈENÝ' ) ;
#208 = APPROVAL_PERSON_ORGANIZATION ( #116, #207, #218 ) ;
#209 = DIRECTION ( 'NONE',  ( 1.000000000000000000, 0.000000000000000000, 0.000000000000000000 ) ) ;
#210 = DIRECTION ( 'NONE',  ( 1.000000000000000000, 0.000000000000000000, 0.000000000000000000 ) ) ;
#211 = ADVANCED_FACE ( 'NONE', ( #158 ), #138, .F. ) ;
#212 = FACE_OUTER_BOUND ( 'NONE', #101, .T. ) ;
#213 = AXIS2_PLACEMENT_3D ( 'NONE', #182, #243, #143 ) ;
#214 = CARTESIAN_POINT ( 'NONE',  ( -7.000000000000000000, 0.000000000000000000, 0.000000000000000000 ) ) ;
#215 = AXIS2_PLACEMENT_3D ( 'NONE', #26, #142, #103 ) ;
#216 = COORDINATED_UNIVERSAL_TIME_OFFSET ( 1, 0, .AHEAD. ) ;
#217 = EDGE_LOOP ( 'NONE', ( #48, #153 ) ) ;
#218 = APPROVAL_ROLE ( '' ) ;
#219 = EDGE_LOOP ( 'NONE', ( #25, #238 ) ) ;
#220 = EDGE_CURVE ( 'NONE', #7, #131, #37, .T. ) ;
#221 = DIRECTION ( 'NONE',  ( 1.000000000000000000, 0.000000000000000000, 0.000000000000000000 ) ) ;
#222 = CC_DESIGN_SECURITY_CLASSIFICATION ( #30, ( #132 ) ) ;
#223 = AXIS2_PLACEMENT_3D ( 'NONE', #159, #88, #245 ) ;
#224 = APPROVAL_DATE_TIME ( #141, #46 ) ;
#225 =( LENGTH_UNIT ( ) NAMED_UNIT ( * ) SI_UNIT ( .MILLI., .METRE. ) );
#226 = CARTESIAN_POINT ( 'NONE',  ( 0.000000000000000000, 0.000000000000000000, 5.000000000000000000 ) ) ;
#227 = CARTESIAN_POINT ( 'NONE',  ( 0.000000000000000000, 0.000000000000000000, 0.000000000000000000 ) ) ;
#228 = DIRECTION ( 'NONE',  ( 1.000000000000000000, 0.000000000000000000, 0.000000000000000000 ) ) ;
#229 = CARTESIAN_POINT ( 'NONE',  ( -4.500000000000000000, 0.000000000000000000, 5.000000000000000000 ) ) ;
#230 = PLANE ( 'NONE',  #24 ) ;
#231 = DIRECTION ( 'NONE',  ( -0.000000000000000000, -0.000000000000000000, -1.000000000000000000 ) ) ;
#232 = APPLICATION_PROTOCOL_DEFINITION ( 'international standard', 'config_control_design', 1994, #50 ) ;
#233 = LOCAL_TIME ( 14, 50, 57.00000000000000000, #77 ) ;
#234 = DATE_AND_TIME ( #152, #189 ) ;
#235 = ORIENTED_EDGE ( 'NONE', *, *, #220, .T. ) ;
#236 = DATE_TIME_ROLE ( 'creation_date' ) ;
#237 = PERSON_AND_ORGANIZATION_ROLE ( 'design_supplier' ) ;
#238 = ORIENTED_EDGE ( 'NONE', *, *, #113, .F. ) ;
#239 = DIRECTION ( 'NONE',  ( 0.000000000000000000, 0.000000000000000000, 1.000000000000000000 ) ) ;
#240 = CC_DESIGN_PERSON_AND_ORGANIZATION_ASSIGNMENT ( #44, #81, ( #63 ) ) ;
#241 = CARTESIAN_POINT ( 'NONE',  ( 4.500000000000000000, 5.510910596163087583E-16, 400.0000000000000000 ) ) ;
#242 = AXIS2_PLACEMENT_3D ( 'NONE', #226, #53, #89 ) ;
#243 = DIRECTION ( 'NONE',  ( 0.000000000000000000, 0.000000000000000000, 1.000000000000000000 ) ) ;
#244 = ADVANCED_FACE ( 'NONE', ( #27 ), #106, .T. ) ;
#245 = DIRECTION ( 'NONE',  ( -1.000000000000000000, 0.000000000000000000, 0.000000000000000000 ) ) ;
#246 = CARTESIAN_POINT ( 'NONE',  ( 0.000000000000000000, 0.000000000000000000, 5.000000000000000000 ) ) ;
#247 = CARTESIAN_POINT ( 'NONE',  ( 0.000000000000000000, 0.000000000000000000, 5.000000000000000000 ) ) ;
#248 = PERSON ( 'NEURÈENÝ', 'NEURÈENÝ', 'NEURÈENÝ', ('NEURÈENÝ'), ('NEURÈENÝ'), ('NEURÈENÝ') ) ;
#249 = SHAPE_DEFINITION_REPRESENTATION ( #85, #31 ) ;
#250 = AXIS2_PLACEMENT_3D ( 'NONE', #205, #204, #86 ) ;
#251 = CC_DESIGN_DATE_AND_TIME_ASSIGNMENT ( #234, #60, ( #30 ) ) ;
#252 = CARTESIAN_POINT ( 'NONE',  ( -4.500000000000000000, 0.000000000000000000, 400.0000000000000000 ) ) ;
#253 = ORGANIZATION ( 'NEURÈENÝ', 'NEURÈENÝ', '' ) ;
#254 = DIRECTION ( 'NONE',  ( -1.000000000000000000, 0.000000000000000000, 0.000000000000000000 ) ) ;
#255 = CIRCLE ( 'NONE', #202, 7.000000000000000000 ) ;
ENDSEC;
END-ISO-10303-21;
