ISO-10303-21;
HEADER;
FILE_DESCRIPTION (( 'STEP AP203' ),
    '1' );
FILE_NAME ('be54.STEP',
    '2023-02-13T13:11:30',
    ( '' ),
    ( '' ),
    'SwSTEP 2.0',
    'SolidWorks 2019',
    '' );
FILE_SCHEMA (( 'CONFIG_CONTROL_DESIGN' ));
ENDSEC;

DATA;
#1 = ORIENTED_EDGE ( 'NONE', *, *, #187, .T. ) ;
#2 = SHAPE_DEFINITION_REPRESENTATION ( #128, #229 ) ;
#3 = DIRECTION ( 'NONE',  ( 1.000000000000000000, 0.000000000000000000, 0.000000000000000000 ) ) ;
#4 = EDGE_CURVE ( 'NONE', #85, #254, #26, .T. ) ;
#5 = ORIENTED_EDGE ( 'NONE', *, *, #175, .F. ) ;
#6 = ADVANCED_FACE ( 'NONE', ( #189 ), #33, .T. ) ;
#7 = CARTESIAN_POINT ( 'NONE',  ( 5.500000000000000000, 6.735557395310442023E-16, 200.0000000000000000 ) ) ;
#8 = APPLICATION_PROTOCOL_DEFINITION ( 'international standard', 'config_control_design', 1994, #47 ) ;
#9 = DIRECTION ( 'NONE',  ( 0.000000000000000000, 0.000000000000000000, 1.000000000000000000 ) ) ;
#10 = CARTESIAN_POINT ( 'NONE',  ( -8.000000000000000000, 0.000000000000000000, 0.000000000000000000 ) ) ;
#11 = CARTESIAN_POINT ( 'NONE',  ( 0.000000000000000000, 0.000000000000000000, 5.000000000000000000 ) ) ;
#12 = PERSON_AND_ORGANIZATION_ROLE ( 'creator' ) ;
#13 = CALENDAR_DATE ( 2023, 13, 2 ) ;
#14 = DIRECTION ( 'NONE',  ( 1.000000000000000000, 0.000000000000000000, 0.000000000000000000 ) ) ;
#15 = PRODUCT_DEFINITION_FORMATION_WITH_SPECIFIED_SOURCE ( 'LIBOVOLNÝ', '', #98, .NOT_KNOWN. ) ;
#16 = CARTESIAN_POINT ( 'NONE',  ( 0.000000000000000000, 0.000000000000000000, 200.0000000000000000 ) ) ;
#17 = CARTESIAN_POINT ( 'NONE',  ( -8.000000000000000000, 0.000000000000000000, 5.000000000000000000 ) ) ;
#18 = DATE_AND_TIME ( #13, #62 ) ;
#19 = APPROVAL_ROLE ( '' ) ;
#20 = CLOSED_SHELL ( 'NONE', ( #182, #6, #154, #57, #132, #145, #112 ) ) ;
#21 = CIRCLE ( 'NONE', #69, 5.500000000000000000 ) ;
#22 = ORIENTED_EDGE ( 'NONE', *, *, #211, .F. ) ;
#23 = AXIS2_PLACEMENT_3D ( 'NONE', #71, #220, #247 ) ;
#24 = PERSON ( 'NEURÈENÝ', 'NEURÈENÝ', 'NEURÈENÝ', ('NEURÈENÝ'), ('NEURÈENÝ'), ('NEURÈENÝ') ) ;
#25 = EDGE_LOOP ( 'NONE', ( #142, #165 ) ) ;
#26 = CIRCLE ( 'NONE', #110, 8.000000000000000000 ) ;
#27 = CC_DESIGN_PERSON_AND_ORGANIZATION_ASSIGNMENT ( #92, #136, ( #255 ) ) ;
#28 = ORIENTED_EDGE ( 'NONE', *, *, #4, .F. ) ;
#29 =( NAMED_UNIT ( * ) PLANE_ANGLE_UNIT ( ) SI_UNIT ( $, .RADIAN. ) );
#30 = AXIS2_PLACEMENT_3D ( 'NONE', #82, #193, #35 ) ;
#31 = DIRECTION ( 'NONE',  ( -0.000000000000000000, -0.000000000000000000, -1.000000000000000000 ) ) ;
#32 = LOCAL_TIME ( 14, 11, 30.00000000000000000, #118 ) ;
#33 = CYLINDRICAL_SURFACE ( 'NONE', #90, 8.000000000000000000 ) ;
#34 = SECURITY_CLASSIFICATION_LEVEL ( 'unclassified' ) ;
#35 = DIRECTION ( 'NONE',  ( 1.000000000000000000, 0.000000000000000000, -0.000000000000000000 ) ) ;
#36 = ORIENTED_EDGE ( 'NONE', *, *, #83, .T. ) ;
#37 = DIRECTION ( 'NONE',  ( 1.000000000000000000, 0.000000000000000000, 0.000000000000000000 ) ) ;
#38 = DATE_TIME_ROLE ( 'classification_date' ) ;
#39 = FACE_OUTER_BOUND ( 'NONE', #102, .T. ) ;
#40 = LINE ( 'NONE', #17, #228 ) ;
#41 = CC_DESIGN_APPROVAL ( #156, ( #255 ) ) ;
#42 = FACE_OUTER_BOUND ( 'NONE', #25, .T. ) ;
#43 = AXIS2_PLACEMENT_3D ( 'NONE', #103, #171, #14 ) ;
#44 = ORIENTED_EDGE ( 'NONE', *, *, #4, .T. ) ;
#45 = CALENDAR_DATE ( 2023, 13, 2 ) ;
#46 = CC_DESIGN_APPROVAL ( #181, ( #245 ) ) ;
#47 = APPLICATION_CONTEXT ( 'configuration controlled 3d designs of mechanical parts and assemblies' ) ;
#48 = MANIFOLD_SOLID_BREP ( 'Pøidat vysunutím3', #20 ) ;
#49 = CIRCLE ( 'NONE', #214, 8.000000000000000000 ) ;
#50 = DIRECTION ( 'NONE',  ( -1.000000000000000000, 0.000000000000000000, 0.000000000000000000 ) ) ;
#51 = APPROVAL_ROLE ( '' ) ;
#52 = CYLINDRICAL_SURFACE ( 'NONE', #179, 8.000000000000000000 ) ;
#53 = EDGE_CURVE ( 'NONE', #60, #94, #250, .T. ) ;
#54 = DATE_AND_TIME ( #74, #190 ) ;
#55 = CARTESIAN_POINT ( 'NONE',  ( -5.500000000000000000, 0.000000000000000000, 200.0000000000000000 ) ) ;
#56 = CARTESIAN_POINT ( 'NONE',  ( 5.500000000000000000, 6.735557395310442023E-16, 5.000000000000000000 ) ) ;
#57 = ADVANCED_FACE ( 'NONE', ( #235, #42 ), #155, .T. ) ;
#58 = DIRECTION ( 'NONE',  ( -0.000000000000000000, -0.000000000000000000, -1.000000000000000000 ) ) ;
#59 = DIRECTION ( 'NONE',  ( 1.000000000000000000, 0.000000000000000000, 0.000000000000000000 ) ) ;
#60 = VERTEX_POINT ( 'NONE', #56 ) ;
#61 = ORIENTED_EDGE ( 'NONE', *, *, #172, .F. ) ;
#62 = LOCAL_TIME ( 14, 11, 30.00000000000000000, #140 ) ;
#63 = APPROVAL_PERSON_ORGANIZATION ( #196, #181, #51 ) ;
#64 = CARTESIAN_POINT ( 'NONE',  ( -5.500000000000000000, 0.000000000000000000, 5.000000000000000000 ) ) ;
#65 =( GEOMETRIC_REPRESENTATION_CONTEXT ( 3 ) GLOBAL_UNCERTAINTY_ASSIGNED_CONTEXT ( ( #226 ) ) GLOBAL_UNIT_ASSIGNED_CONTEXT ( ( #216, #29, #72 ) ) REPRESENTATION_CONTEXT ( 'NONE', 'WORKASPACE' ) );
#66 = CIRCLE ( 'NONE', #43, 5.500000000000000000 ) ;
#67 = ORIENTED_EDGE ( 'NONE', *, *, #175, .T. ) ;
#68 = CARTESIAN_POINT ( 'NONE',  ( 0.000000000000000000, 0.000000000000000000, 200.0000000000000000 ) ) ;
#69 = AXIS2_PLACEMENT_3D ( 'NONE', #99, #9, #37 ) ;
#70 = DATE_AND_TIME ( #91, #32 ) ;
#71 = CARTESIAN_POINT ( 'NONE',  ( 0.000000000000000000, 0.000000000000000000, 200.0000000000000000 ) ) ;
#72 =( NAMED_UNIT ( * ) SI_UNIT ( $, .STERADIAN. ) SOLID_ANGLE_UNIT ( ) );
#73 = APPROVAL_STATUS ( 'not_yet_approved' ) ;
#74 = CALENDAR_DATE ( 2023, 13, 2 ) ;
#75 = CC_DESIGN_PERSON_AND_ORGANIZATION_ASSIGNMENT ( #231, #89, ( #15 ) ) ;
#76 = VERTEX_POINT ( 'NONE', #123 ) ;
#77 = DIRECTION ( 'NONE',  ( 1.000000000000000000, 0.000000000000000000, -0.000000000000000000 ) ) ;
#78 = DIRECTION ( 'NONE',  ( -1.000000000000000000, 0.000000000000000000, 0.000000000000000000 ) ) ;
#79 = AXIS2_PLACEMENT_3D ( 'NONE', #207, #152, #137 ) ;
#80 = APPROVAL_DATE_TIME ( #93, #156 ) ;
#81 = CC_DESIGN_PERSON_AND_ORGANIZATION_ASSIGNMENT ( #88, #159, ( #98 ) ) ;
#82 = CARTESIAN_POINT ( 'NONE',  ( 0.000000000000000000, 0.000000000000000000, 200.0000000000000000 ) ) ;
#83 = EDGE_CURVE ( 'NONE', #234, #254, #40, .T. ) ;
#84 = CARTESIAN_POINT ( 'NONE',  ( 0.000000000000000000, 0.000000000000000000, 0.000000000000000000 ) ) ;
#85 = VERTEX_POINT ( 'NONE', #166 ) ;
#86 = ORIENTED_EDGE ( 'NONE', *, *, #218, .T. ) ;
#87 = AXIS2_PLACEMENT_3D ( 'NONE', #236, #215, #3 ) ;
#88 = PERSON_AND_ORGANIZATION ( #24, #141 ) ;
#89 = PERSON_AND_ORGANIZATION_ROLE ( 'design_supplier' ) ;
#90 = AXIS2_PLACEMENT_3D ( 'NONE', #11, #111, #78 ) ;
#91 = CALENDAR_DATE ( 2023, 13, 2 ) ;
#92 = PERSON_AND_ORGANIZATION ( #24, #141 ) ;
#93 = DATE_AND_TIME ( #45, #131 ) ;
#94 = VERTEX_POINT ( 'NONE', #64 ) ;
#95 = ORIENTED_EDGE ( 'NONE', *, *, #197, .F. ) ;
#96 = VECTOR ( 'NONE', #233, 1000.000000000000000 ) ;
#97 = ORIENTED_EDGE ( 'NONE', *, *, #187, .F. ) ;
#98 = PRODUCT ( 'be54', 'be54', '', ( #244 ) ) ;
#99 = CARTESIAN_POINT ( 'NONE',  ( 0.000000000000000000, 0.000000000000000000, 5.000000000000000000 ) ) ;
#100 = CARTESIAN_POINT ( 'NONE',  ( 0.000000000000000000, 0.000000000000000000, 5.000000000000000000 ) ) ;
#101 = PERSON_AND_ORGANIZATION ( #24, #141 ) ;
#102 = EDGE_LOOP ( 'NONE', ( #97, #28 ) ) ;
#103 = CARTESIAN_POINT ( 'NONE',  ( 0.000000000000000000, 0.000000000000000000, 200.0000000000000000 ) ) ;
#104 = AXIS2_PLACEMENT_3D ( 'NONE', #16, #191, #153 ) ;
#105 = PERSON_AND_ORGANIZATION ( #24, #141 ) ;
#106 = CC_DESIGN_APPROVAL ( #144, ( #15 ) ) ;
#107 = EDGE_LOOP ( 'NONE', ( #138, #67, #126, #22 ) ) ;
#108 = DIRECTION ( 'NONE',  ( 1.000000000000000000, 0.000000000000000000, 0.000000000000000000 ) ) ;
#109 = CC_DESIGN_PERSON_AND_ORGANIZATION_ASSIGNMENT ( #194, #177, ( #15 ) ) ;
#110 = AXIS2_PLACEMENT_3D ( 'NONE', #84, #217, #134 ) ;
#111 = DIRECTION ( 'NONE',  ( -0.000000000000000000, -0.000000000000000000, -1.000000000000000000 ) ) ;
#112 = ADVANCED_FACE ( 'NONE', ( #129 ), #238, .T. ) ;
#113 = ORIENTED_EDGE ( 'NONE', *, *, #117, .F. ) ;
#114 = CC_DESIGN_DATE_AND_TIME_ASSIGNMENT ( #54, #38, ( #255 ) ) ;
#115 = EDGE_LOOP ( 'NONE', ( #232, #86 ) ) ;
#116 = CARTESIAN_POINT ( 'NONE',  ( 0.000000000000000000, 0.000000000000000000, 5.000000000000000000 ) ) ;
#117 = EDGE_CURVE ( 'NONE', #234, #76, #49, .T. ) ;
#118 = COORDINATED_UNIVERSAL_TIME_OFFSET ( 1, 0, .AHEAD. ) ;
#119 = DIRECTION ( 'NONE',  ( 0.000000000000000000, 0.000000000000000000, 1.000000000000000000 ) ) ;
#120 = DIRECTION ( 'NONE',  ( 1.000000000000000000, 0.000000000000000000, 0.000000000000000000 ) ) ;
#121 = PERSON_AND_ORGANIZATION ( #24, #141 ) ;
#122 = DIRECTION ( 'NONE',  ( -0.000000000000000000, -0.000000000000000000, -1.000000000000000000 ) ) ;
#123 = CARTESIAN_POINT ( 'NONE',  ( 8.000000000000000000, 9.797174393178825657E-16, 5.000000000000000000 ) ) ;
#124 = VECTOR ( 'NONE', #122, 1000.000000000000000 ) ;
#125 = EDGE_CURVE ( 'NONE', #76, #85, #146, .T. ) ;
#126 = ORIENTED_EDGE ( 'NONE', *, *, #53, .T. ) ;
#127 = PRODUCT_RELATED_PRODUCT_CATEGORY ( 'detail', '', ( #98 ) ) ;
#128 = PRODUCT_DEFINITION_SHAPE ( 'NONE', 'NONE',  #245 ) ;
#129 = FACE_OUTER_BOUND ( 'NONE', #115, .T. ) ;
#130 = EDGE_LOOP ( 'NONE', ( #95, #251, #44, #242 ) ) ;
#131 = LOCAL_TIME ( 14, 11, 30.00000000000000000, #178 ) ;
#132 = ADVANCED_FACE ( 'NONE', ( #39 ), #135, .F. ) ;
#133 = LINE ( 'NONE', #55, #124 ) ;
#134 = DIRECTION ( 'NONE',  ( 1.000000000000000000, 0.000000000000000000, 0.000000000000000000 ) ) ;
#135 = PLANE ( 'NONE',  #143 ) ;
#136 = PERSON_AND_ORGANIZATION_ROLE ( 'classification_officer' ) ;
#137 = DIRECTION ( 'NONE',  ( 1.000000000000000000, 0.000000000000000000, -0.000000000000000000 ) ) ;
#138 = ORIENTED_EDGE ( 'NONE', *, *, #218, .F. ) ;
#139 = CARTESIAN_POINT ( 'NONE',  ( 0.000000000000000000, 0.000000000000000000, 5.000000000000000000 ) ) ;
#140 = COORDINATED_UNIVERSAL_TIME_OFFSET ( 1, 0, .AHEAD. ) ;
#141 = ORGANIZATION ( 'NEURÈENÝ', 'NEURÈENÝ', '' ) ;
#142 = ORIENTED_EDGE ( 'NONE', *, *, #117, .T. ) ;
#143 = AXIS2_PLACEMENT_3D ( 'NONE', #222, #119, #77 ) ;
#144 = APPROVAL ( #223, 'NEURÈENÝ' ) ;
#145 = ADVANCED_FACE ( 'NONE', ( #173 ), #195, .T. ) ;
#146 = LINE ( 'NONE', #150, #253 ) ;
#147 = AXIS2_PLACEMENT_3D ( 'NONE', #204, #199, #59 ) ;
#148 = CYLINDRICAL_SURFACE ( 'NONE', #206, 5.500000000000000000 ) ;
#149 = CALENDAR_DATE ( 2023, 13, 2 ) ;
#150 = CARTESIAN_POINT ( 'NONE',  ( 8.000000000000000000, 9.797174393178825657E-16, 5.000000000000000000 ) ) ;
#151 = CARTESIAN_POINT ( 'NONE',  ( 0.000000000000000000, 0.000000000000000000, 0.000000000000000000 ) ) ;
#152 = DIRECTION ( 'NONE',  ( 0.000000000000000000, 0.000000000000000000, 1.000000000000000000 ) ) ;
#153 = DIRECTION ( 'NONE',  ( -1.000000000000000000, 0.000000000000000000, 0.000000000000000000 ) ) ;
#154 = ADVANCED_FACE ( 'NONE', ( #246 ), #52, .T. ) ;
#155 = PLANE ( 'NONE',  #79 ) ;
#156 = APPROVAL ( #176, 'NEURÈENÝ' ) ;
#157 = EDGE_CURVE ( 'NONE', #94, #60, #21, .T. ) ;
#158 = LOCAL_TIME ( 14, 11, 30.00000000000000000, #224 ) ;
#159 = PERSON_AND_ORGANIZATION_ROLE ( 'design_owner' ) ;
#160 = CC_DESIGN_PERSON_AND_ORGANIZATION_ASSIGNMENT ( #121, #12, ( #245 ) ) ;
#161 = DIRECTION ( 'NONE',  ( -0.000000000000000000, -0.000000000000000000, -1.000000000000000000 ) ) ;
#162 = EDGE_LOOP ( 'NONE', ( #184, #205 ) ) ;
#163 = ORIENTED_EDGE ( 'NONE', *, *, #157, .T. ) ;
#164 = ORIENTED_EDGE ( 'NONE', *, *, #125, .F. ) ;
#165 = ORIENTED_EDGE ( 'NONE', *, *, #197, .T. ) ;
#166 = CARTESIAN_POINT ( 'NONE',  ( 8.000000000000000000, 9.797174393178825657E-16, 0.000000000000000000 ) ) ;
#167 = FACE_OUTER_BOUND ( 'NONE', #107, .T. ) ;
#168 = CARTESIAN_POINT ( 'NONE',  ( -5.500000000000000000, 0.000000000000000000, 200.0000000000000000 ) ) ;
#169 = APPROVAL_DATE_TIME ( #221, #181 ) ;
#170 = DIRECTION ( 'NONE',  ( 0.000000000000000000, 0.000000000000000000, 1.000000000000000000 ) ) ;
#171 = DIRECTION ( 'NONE',  ( 0.000000000000000000, 0.000000000000000000, 1.000000000000000000 ) ) ;
#172 = EDGE_CURVE ( 'NONE', #213, #208, #66, .T. ) ;
#173 = FACE_OUTER_BOUND ( 'NONE', #209, .T. ) ;
#174 = APPROVAL_PERSON_ORGANIZATION ( #101, #144, #227 ) ;
#175 = EDGE_CURVE ( 'NONE', #208, #60, #237, .T. ) ;
#176 = APPROVAL_STATUS ( 'not_yet_approved' ) ;
#177 = PERSON_AND_ORGANIZATION_ROLE ( 'creator' ) ;
#178 = COORDINATED_UNIVERSAL_TIME_OFFSET ( 1, 0, .AHEAD. ) ;
#179 = AXIS2_PLACEMENT_3D ( 'NONE', #139, #31, #201 ) ;
#180 = CARTESIAN_POINT ( 'NONE',  ( 5.500000000000000000, 6.735557395310442023E-16, 200.0000000000000000 ) ) ;
#181 = APPROVAL ( #73, 'NEURÈENÝ' ) ;
#182 = ADVANCED_FACE ( 'NONE', ( #167 ), #148, .T. ) ;
#183 = CIRCLE ( 'NONE', #203, 8.000000000000000000 ) ;
#184 = ORIENTED_EDGE ( 'NONE', *, *, #157, .F. ) ;
#185 = DIRECTION ( 'NONE',  ( -0.000000000000000000, -0.000000000000000000, -1.000000000000000000 ) ) ;
#186 = CC_DESIGN_DATE_AND_TIME_ASSIGNMENT ( #70, #188, ( #245 ) ) ;
#187 = EDGE_CURVE ( 'NONE', #254, #85, #183, .T. ) ;
#188 = DATE_TIME_ROLE ( 'creation_date' ) ;
#189 = FACE_OUTER_BOUND ( 'NONE', #130, .T. ) ;
#190 = LOCAL_TIME ( 14, 11, 30.00000000000000000, #248 ) ;
#191 = DIRECTION ( 'NONE',  ( -0.000000000000000000, -0.000000000000000000, -1.000000000000000000 ) ) ;
#192 = AXIS2_PLACEMENT_3D ( 'NONE', #100, #170, #225 ) ;
#193 = DIRECTION ( 'NONE',  ( 0.000000000000000000, 0.000000000000000000, 1.000000000000000000 ) ) ;
#194 = PERSON_AND_ORGANIZATION ( #24, #141 ) ;
#195 = CYLINDRICAL_SURFACE ( 'NONE', #104, 5.500000000000000000 ) ;
#196 = PERSON_AND_ORGANIZATION ( #24, #141 ) ;
#197 = EDGE_CURVE ( 'NONE', #76, #234, #212, .T. ) ;
#198 = DIRECTION ( 'NONE',  ( 0.000000000000000000, 0.000000000000000000, 1.000000000000000000 ) ) ;
#199 = DIRECTION ( 'NONE',  ( 0.000000000000000000, 0.000000000000000000, 1.000000000000000000 ) ) ;
#200 = ORIENTED_EDGE ( 'NONE', *, *, #211, .T. ) ;
#201 = DIRECTION ( 'NONE',  ( -1.000000000000000000, 0.000000000000000000, 0.000000000000000000 ) ) ;
#202 = APPROVAL_PERSON_ORGANIZATION ( #105, #156, #19 ) ;
#203 = AXIS2_PLACEMENT_3D ( 'NONE', #151, #243, #120 ) ;
#204 = CARTESIAN_POINT ( 'NONE',  ( 0.000000000000000000, 0.000000000000000000, 5.000000000000000000 ) ) ;
#205 = ORIENTED_EDGE ( 'NONE', *, *, #53, .F. ) ;
#206 = AXIS2_PLACEMENT_3D ( 'NONE', #68, #185, #50 ) ;
#207 = CARTESIAN_POINT ( 'NONE',  ( 0.000000000000000000, 0.000000000000000000, 5.000000000000000000 ) ) ;
#208 = VERTEX_POINT ( 'NONE', #7 ) ;
#209 = EDGE_LOOP ( 'NONE', ( #5, #61, #200, #163 ) ) ;
#210 = EDGE_LOOP ( 'NONE', ( #164, #113, #36, #1 ) ) ;
#211 = EDGE_CURVE ( 'NONE', #213, #94, #133, .T. ) ;
#212 = CIRCLE ( 'NONE', #192, 8.000000000000000000 ) ;
#213 = VERTEX_POINT ( 'NONE', #168 ) ;
#214 = AXIS2_PLACEMENT_3D ( 'NONE', #116, #198, #108 ) ;
#215 = DIRECTION ( 'NONE',  ( 0.000000000000000000, 0.000000000000000000, 1.000000000000000000 ) ) ;
#216 =( LENGTH_UNIT ( ) NAMED_UNIT ( * ) SI_UNIT ( .MILLI., .METRE. ) );
#217 = DIRECTION ( 'NONE',  ( 0.000000000000000000, 0.000000000000000000, 1.000000000000000000 ) ) ;
#218 = EDGE_CURVE ( 'NONE', #208, #213, #252, .T. ) ;
#219 = APPLICATION_CONTEXT ( 'configuration controlled 3d designs of mechanical parts and assemblies' ) ;
#220 = DIRECTION ( 'NONE',  ( 0.000000000000000000, 0.000000000000000000, 1.000000000000000000 ) ) ;
#221 = DATE_AND_TIME ( #149, #158 ) ;
#222 = CARTESIAN_POINT ( 'NONE',  ( 0.000000000000000000, 0.000000000000000000, 0.000000000000000000 ) ) ;
#223 = APPROVAL_STATUS ( 'not_yet_approved' ) ;
#224 = COORDINATED_UNIVERSAL_TIME_OFFSET ( 1, 0, .AHEAD. ) ;
#225 = DIRECTION ( 'NONE',  ( 1.000000000000000000, 0.000000000000000000, 0.000000000000000000 ) ) ;
#226 = UNCERTAINTY_MEASURE_WITH_UNIT (LENGTH_MEASURE( 1.000000000000000082E-05 ), #216, 'distance_accuracy_value', 'NONE');
#227 = APPROVAL_ROLE ( '' ) ;
#228 = VECTOR ( 'NONE', #161, 1000.000000000000000 ) ;
#229 = ADVANCED_BREP_SHAPE_REPRESENTATION ( 'be54', ( #48, #87 ), #65 ) ;
#230 = APPROVAL_DATE_TIME ( #18, #144 ) ;
#231 = PERSON_AND_ORGANIZATION ( #24, #141 ) ;
#232 = ORIENTED_EDGE ( 'NONE', *, *, #172, .T. ) ;
#233 = DIRECTION ( 'NONE',  ( -0.000000000000000000, -0.000000000000000000, -1.000000000000000000 ) ) ;
#234 = VERTEX_POINT ( 'NONE', #241 ) ;
#235 = FACE_BOUND ( 'NONE', #162, .T. ) ;
#236 = CARTESIAN_POINT ( 'NONE',  ( 0.000000000000000000, 0.000000000000000000, 0.000000000000000000 ) ) ;
#237 = LINE ( 'NONE', #180, #96 ) ;
#238 = PLANE ( 'NONE',  #30 ) ;
#239 = CC_DESIGN_SECURITY_CLASSIFICATION ( #255, ( #15 ) ) ;
#240 = DESIGN_CONTEXT ( 'detailed design', #219, 'design' ) ;
#241 = CARTESIAN_POINT ( 'NONE',  ( -8.000000000000000000, 0.000000000000000000, 5.000000000000000000 ) ) ;
#242 = ORIENTED_EDGE ( 'NONE', *, *, #83, .F. ) ;
#243 = DIRECTION ( 'NONE',  ( 0.000000000000000000, 0.000000000000000000, 1.000000000000000000 ) ) ;
#244 = MECHANICAL_CONTEXT ( 'NONE', #47, 'mechanical' ) ;
#245 = PRODUCT_DEFINITION ( 'NEZNÁMÝ', '', #15, #240 ) ;
#246 = FACE_OUTER_BOUND ( 'NONE', #210, .T. ) ;
#247 = DIRECTION ( 'NONE',  ( 1.000000000000000000, 0.000000000000000000, 0.000000000000000000 ) ) ;
#248 = COORDINATED_UNIVERSAL_TIME_OFFSET ( 1, 0, .AHEAD. ) ;
#249 = APPLICATION_PROTOCOL_DEFINITION ( 'international standard', 'config_control_design', 1994, #219 ) ;
#250 = CIRCLE ( 'NONE', #147, 5.500000000000000000 ) ;
#251 = ORIENTED_EDGE ( 'NONE', *, *, #125, .T. ) ;
#252 = CIRCLE ( 'NONE', #23, 5.500000000000000000 ) ;
#253 = VECTOR ( 'NONE', #58, 1000.000000000000000 ) ;
#254 = VERTEX_POINT ( 'NONE', #10 ) ;
#255 = SECURITY_CLASSIFICATION ( '', '', #34 ) ;
ENDSEC;
END-ISO-10303-21;
