ISO-10303-21;
HEADER;
FILE_DESCRIPTION (( 'STEP AP203' ),
    '1' );
FILE_NAME ('3ed7.STEP',
    '2023-02-13T16:09:20',
    ( '' ),
    ( '' ),
    'SwSTEP 2.0',
    'SolidWorks 2019',
    '' );
FILE_SCHEMA (( 'CONFIG_CONTROL_DESIGN' ));
ENDSEC;

DATA;
#1 = DIRECTION ( 'NONE',  ( 0.000000000000000000, 0.000000000000000000, 1.000000000000000000 ) ) ;
#2 = APPROVAL_DATE_TIME ( #178, #58 ) ;
#3 = AXIS2_PLACEMENT_3D ( 'NONE', #52, #118, #93 ) ;
#4 = PERSON_AND_ORGANIZATION_ROLE ( 'classification_officer' ) ;
#5 = VERTEX_POINT ( 'NONE', #100 ) ;
#6 = AXIS2_PLACEMENT_3D ( 'NONE', #196, #1, #171 ) ;
#7 = ORIENTED_EDGE ( 'NONE', *, *, #238, .F. ) ;
#8 = PERSON_AND_ORGANIZATION ( #159, #214 ) ;
#9 = PERSON_AND_ORGANIZATION_ROLE ( 'creator' ) ;
#10 = VERTEX_POINT ( 'NONE', #14 ) ;
#11 = PRODUCT_DEFINITION_FORMATION_WITH_SPECIFIED_SOURCE ( 'LIBOVOLNÝ', '', #82, .NOT_KNOWN. ) ;
#12 = EDGE_CURVE ( 'NONE', #246, #247, #199, .T. ) ;
#13 = PERSON_AND_ORGANIZATION ( #159, #214 ) ;
#14 = CARTESIAN_POINT ( 'NONE',  ( 2.000000000000000000, 2.449293598294705921E-16, 500.0000000000000000 ) ) ;
#15 = DIRECTION ( 'NONE',  ( 0.000000000000000000, 0.000000000000000000, 1.000000000000000000 ) ) ;
#16 = EDGE_CURVE ( 'NONE', #247, #211, #179, .T. ) ;
#17 = VECTOR ( 'NONE', #155, 1000.000000000000000 ) ;
#18 = CARTESIAN_POINT ( 'NONE',  ( -2.000000000000000000, 0.000000000000000000, 500.0000000000000000 ) ) ;
#19 = DIRECTION ( 'NONE',  ( 0.000000000000000000, 0.000000000000000000, 1.000000000000000000 ) ) ;
#20 = DIRECTION ( 'NONE',  ( -1.000000000000000000, 0.000000000000000000, 0.000000000000000000 ) ) ;
#21 = CC_DESIGN_PERSON_AND_ORGANIZATION_ASSIGNMENT ( #162, #221, ( #11 ) ) ;
#22 = DIRECTION ( 'NONE',  ( 0.000000000000000000, 0.000000000000000000, 1.000000000000000000 ) ) ;
#23 = AXIS2_PLACEMENT_3D ( 'NONE', #235, #209, #234 ) ;
#24 = APPROVAL_ROLE ( '' ) ;
#25 = PERSON_AND_ORGANIZATION_ROLE ( 'design_supplier' ) ;
#26 = ORIENTED_EDGE ( 'NONE', *, *, #73, .T. ) ;
#27 =( NAMED_UNIT ( * ) SI_UNIT ( $, .STERADIAN. ) SOLID_ANGLE_UNIT ( ) );
#28 = UNCERTAINTY_MEASURE_WITH_UNIT (LENGTH_MEASURE( 1.000000000000000082E-05 ), #144, 'distance_accuracy_value', 'NONE');
#29 = PERSON_AND_ORGANIZATION ( #159, #214 ) ;
#30 = ORIENTED_EDGE ( 'NONE', *, *, #64, .F. ) ;
#31 = CALENDAR_DATE ( 2023, 13, 2 ) ;
#32 = DIRECTION ( 'NONE',  ( 1.000000000000000000, 0.000000000000000000, 0.000000000000000000 ) ) ;
#33 = CIRCLE ( 'NONE', #48, 2.000000000000000000 ) ;
#34 = ADVANCED_FACE ( 'NONE', ( #66, #157 ), #189, .T. ) ;
#35 = DIRECTION ( 'NONE',  ( 1.000000000000000000, 0.000000000000000000, 0.000000000000000000 ) ) ;
#36 = CARTESIAN_POINT ( 'NONE',  ( 4.000000000000000000, 4.898587196589412829E-16, 3.000000000000000000 ) ) ;
#37 = LOCAL_TIME ( 17, 9, 20.00000000000000000, #104 ) ;
#38 = EDGE_CURVE ( 'NONE', #130, #246, #223, .T. ) ;
#39 = FACE_OUTER_BOUND ( 'NONE', #57, .T. ) ;
#40 = DIRECTION ( 'NONE',  ( -0.000000000000000000, -0.000000000000000000, -1.000000000000000000 ) ) ;
#41 = CC_DESIGN_PERSON_AND_ORGANIZATION_ASSIGNMENT ( #219, #25, ( #11 ) ) ;
#42 = COORDINATED_UNIVERSAL_TIME_OFFSET ( 1, 0, .AHEAD. ) ;
#43 = ORIENTED_EDGE ( 'NONE', *, *, #180, .T. ) ;
#44 = APPROVAL_STATUS ( 'not_yet_approved' ) ;
#45 = APPROVAL_ROLE ( '' ) ;
#46 = ORIENTED_EDGE ( 'NONE', *, *, #142, .T. ) ;
#47 = AXIS2_PLACEMENT_3D ( 'NONE', #95, #19, #138 ) ;
#48 = AXIS2_PLACEMENT_3D ( 'NONE', #135, #22, #252 ) ;
#49 = DIRECTION ( 'NONE',  ( 1.000000000000000000, 0.000000000000000000, -0.000000000000000000 ) ) ;
#50 = FACE_OUTER_BOUND ( 'NONE', #149, .T. ) ;
#51 = MANIFOLD_SOLID_BREP ( 'Pøidat vysunutím3', #222 ) ;
#52 = CARTESIAN_POINT ( 'NONE',  ( 0.000000000000000000, 0.000000000000000000, 500.0000000000000000 ) ) ;
#53 = AXIS2_PLACEMENT_3D ( 'NONE', #225, #165, #55 ) ;
#54 = ORIENTED_EDGE ( 'NONE', *, *, #142, .F. ) ;
#55 = DIRECTION ( 'NONE',  ( 1.000000000000000000, 0.000000000000000000, 0.000000000000000000 ) ) ;
#56 = PERSON_AND_ORGANIZATION_ROLE ( 'design_owner' ) ;
#57 = EDGE_LOOP ( 'NONE', ( #46, #201 ) ) ;
#58 = APPROVAL ( #44, 'NEURÈENÝ' ) ;
#59 = CALENDAR_DATE ( 2023, 13, 2 ) ;
#60 = ORIENTED_EDGE ( 'NONE', *, *, #16, .F. ) ;
#61 = CC_DESIGN_APPROVAL ( #253, ( #183 ) ) ;
#62 = APPLICATION_PROTOCOL_DEFINITION ( 'international standard', 'config_control_design', 1994, #193 ) ;
#63 = FACE_OUTER_BOUND ( 'NONE', #166, .T. ) ;
#64 = EDGE_CURVE ( 'NONE', #5, #78, #74, .T. ) ;
#65 = CARTESIAN_POINT ( 'NONE',  ( 2.000000000000000000, 2.449293598294705921E-16, 500.0000000000000000 ) ) ;
#66 = FACE_BOUND ( 'NONE', #76, .T. ) ;
#67 = CARTESIAN_POINT ( 'NONE',  ( 0.000000000000000000, 0.000000000000000000, 0.000000000000000000 ) ) ;
#68 = APPROVAL_PERSON_ORGANIZATION ( #8, #58, #24 ) ;
#69 = CYLINDRICAL_SURFACE ( 'NONE', #111, 4.000000000000000000 ) ;
#70 = CARTESIAN_POINT ( 'NONE',  ( 0.000000000000000000, 0.000000000000000000, 3.000000000000000000 ) ) ;
#71 = LOCAL_TIME ( 17, 9, 20.00000000000000000, #191 ) ;
#72 = CARTESIAN_POINT ( 'NONE',  ( 4.000000000000000000, 4.898587196589412829E-16, 0.000000000000000000 ) ) ;
#73 = EDGE_CURVE ( 'NONE', #81, #5, #156, .T. ) ;
#74 = CIRCLE ( 'NONE', #210, 2.000000000000000000 ) ;
#75 = CALENDAR_DATE ( 2023, 13, 2 ) ;
#76 = EDGE_LOOP ( 'NONE', ( #30, #188 ) ) ;
#77 = MECHANICAL_CONTEXT ( 'NONE', #193, 'mechanical' ) ;
#78 = VERTEX_POINT ( 'NONE', #108 ) ;
#79 = COORDINATED_UNIVERSAL_TIME_OFFSET ( 1, 0, .AHEAD. ) ;
#80 = DATE_TIME_ROLE ( 'creation_date' ) ;
#81 = VERTEX_POINT ( 'NONE', #18 ) ;
#82 = PRODUCT ( '3ed7', '3ed7', '', ( #77 ) ) ;
#83 = APPROVAL_DATE_TIME ( #170, #253 ) ;
#84 = ORIENTED_EDGE ( 'NONE', *, *, #89, .T. ) ;
#85 = CC_DESIGN_DATE_AND_TIME_ASSIGNMENT ( #202, #80, ( #117 ) ) ;
#86 = LINE ( 'NONE', #65, #17 ) ;
#87 = CYLINDRICAL_SURFACE ( 'NONE', #194, 4.000000000000000000 ) ;
#88 = DATE_TIME_ROLE ( 'classification_date' ) ;
#89 = EDGE_CURVE ( 'NONE', #10, #78, #86, .T. ) ;
#90 = SHAPE_DEFINITION_REPRESENTATION ( #242, #153 ) ;
#91 = AXIS2_PLACEMENT_3D ( 'NONE', #169, #230, #49 ) ;
#92 = FACE_OUTER_BOUND ( 'NONE', #200, .T. ) ;
#93 = DIRECTION ( 'NONE',  ( 1.000000000000000000, 0.000000000000000000, 0.000000000000000000 ) ) ;
#94 = CARTESIAN_POINT ( 'NONE',  ( 0.000000000000000000, 0.000000000000000000, 500.0000000000000000 ) ) ;
#95 = CARTESIAN_POINT ( 'NONE',  ( 0.000000000000000000, 0.000000000000000000, 500.0000000000000000 ) ) ;
#96 = LINE ( 'NONE', #213, #195 ) ;
#97 = CALENDAR_DATE ( 2023, 13, 2 ) ;
#98 = SECURITY_CLASSIFICATION_LEVEL ( 'unclassified' ) ;
#99 = VECTOR ( 'NONE', #115, 1000.000000000000000 ) ;
#100 = CARTESIAN_POINT ( 'NONE',  ( -2.000000000000000000, 0.000000000000000000, 3.000000000000000000 ) ) ;
#101 = APPROVAL_STATUS ( 'not_yet_approved' ) ;
#102 = ADVANCED_FACE ( 'NONE', ( #167 ), #205, .F. ) ;
#103 = ORIENTED_EDGE ( 'NONE', *, *, #198, .T. ) ;
#104 = COORDINATED_UNIVERSAL_TIME_OFFSET ( 1, 0, .AHEAD. ) ;
#105 = ORIENTED_EDGE ( 'NONE', *, *, #38, .F. ) ;
#106 = ORIENTED_EDGE ( 'NONE', *, *, #12, .F. ) ;
#107 = LOCAL_TIME ( 17, 9, 20.00000000000000000, #42 ) ;
#108 = CARTESIAN_POINT ( 'NONE',  ( 2.000000000000000000, 2.449293598294705921E-16, 3.000000000000000000 ) ) ;
#109 = CARTESIAN_POINT ( 'NONE',  ( 0.000000000000000000, 0.000000000000000000, 3.000000000000000000 ) ) ;
#110 = DESIGN_CONTEXT ( 'detailed design', #217, 'design' ) ;
#111 = AXIS2_PLACEMENT_3D ( 'NONE', #70, #197, #20 ) ;
#112 = CARTESIAN_POINT ( 'NONE',  ( 0.000000000000000000, 0.000000000000000000, 3.000000000000000000 ) ) ;
#113 = ADVANCED_FACE ( 'NONE', ( #63 ), #87, .T. ) ;
#114 = AXIS2_PLACEMENT_3D ( 'NONE', #94, #254, #175 ) ;
#115 = DIRECTION ( 'NONE',  ( -0.000000000000000000, -0.000000000000000000, -1.000000000000000000 ) ) ;
#116 = CIRCLE ( 'NONE', #3, 2.000000000000000000 ) ;
#117 = PRODUCT_DEFINITION ( 'NEZNÁMÝ', '', #11, #110 ) ;
#118 = DIRECTION ( 'NONE',  ( 0.000000000000000000, 0.000000000000000000, 1.000000000000000000 ) ) ;
#119 = DIRECTION ( 'NONE',  ( 0.000000000000000000, 0.000000000000000000, 1.000000000000000000 ) ) ;
#120 = ADVANCED_FACE ( 'NONE', ( #39 ), #121, .T. ) ;
#121 = PLANE ( 'NONE',  #47 ) ;
#122 = AXIS2_PLACEMENT_3D ( 'NONE', #161, #215, #35 ) ;
#123 = ORIENTED_EDGE ( 'NONE', *, *, #180, .F. ) ;
#124 = DATE_AND_TIME ( #75, #107 ) ;
#125 = AXIS2_PLACEMENT_3D ( 'NONE', #231, #233, #248 ) ;
#126 = ORIENTED_EDGE ( 'NONE', *, *, #38, .T. ) ;
#127 = ORIENTED_EDGE ( 'NONE', *, *, #64, .T. ) ;
#128 = ORIENTED_EDGE ( 'NONE', *, *, #73, .F. ) ;
#129 = CALENDAR_DATE ( 2023, 13, 2 ) ;
#130 = VERTEX_POINT ( 'NONE', #174 ) ;
#131 = CC_DESIGN_PERSON_AND_ORGANIZATION_ASSIGNMENT ( #181, #4, ( #183 ) ) ;
#132 = DIRECTION ( 'NONE',  ( 1.000000000000000000, 0.000000000000000000, 0.000000000000000000 ) ) ;
#133 = CIRCLE ( 'NONE', #6, 2.000000000000000000 ) ;
#134 = DIRECTION ( 'NONE',  ( 1.000000000000000000, 0.000000000000000000, 0.000000000000000000 ) ) ;
#135 = CARTESIAN_POINT ( 'NONE',  ( 0.000000000000000000, 0.000000000000000000, 500.0000000000000000 ) ) ;
#136 = EDGE_LOOP ( 'NONE', ( #126, #43 ) ) ;
#137 = APPROVAL ( #101, 'NEURÈENÝ' ) ;
#138 = DIRECTION ( 'NONE',  ( 1.000000000000000000, 0.000000000000000000, -0.000000000000000000 ) ) ;
#139 = ORIENTED_EDGE ( 'NONE', *, *, #12, .T. ) ;
#140 = CIRCLE ( 'NONE', #122, 4.000000000000000000 ) ;
#141 = DIRECTION ( 'NONE',  ( 1.000000000000000000, 0.000000000000000000, 0.000000000000000000 ) ) ;
#142 = EDGE_CURVE ( 'NONE', #81, #10, #116, .T. ) ;
#143 = CARTESIAN_POINT ( 'NONE',  ( 0.000000000000000000, 0.000000000000000000, 3.000000000000000000 ) ) ;
#144 =( LENGTH_UNIT ( ) NAMED_UNIT ( * ) SI_UNIT ( .MILLI., .METRE. ) );
#145 = APPROVAL_PERSON_ORGANIZATION ( #245, #137, #45 ) ;
#146 = COORDINATED_UNIVERSAL_TIME_OFFSET ( 1, 0, .AHEAD. ) ;
#147 = ADVANCED_FACE ( 'NONE', ( #172 ), #69, .T. ) ;
#148 = DIRECTION ( 'NONE',  ( -0.000000000000000000, -0.000000000000000000, -1.000000000000000000 ) ) ;
#149 = EDGE_LOOP ( 'NONE', ( #186, #84, #103, #128 ) ) ;
#150 = PERSON_AND_ORGANIZATION ( #159, #214 ) ;
#151 = ADVANCED_FACE ( 'NONE', ( #92 ), #237, .T. ) ;
#152 = DIRECTION ( 'NONE',  ( 0.000000000000000000, 0.000000000000000000, 1.000000000000000000 ) ) ;
#153 = ADVANCED_BREP_SHAPE_REPRESENTATION ( '3ed7', ( #51, #53 ), #154 ) ;
#154 =( GEOMETRIC_REPRESENTATION_CONTEXT ( 3 ) GLOBAL_UNCERTAINTY_ASSIGNED_CONTEXT ( ( #28 ) ) GLOBAL_UNIT_ASSIGNED_CONTEXT ( ( #144, #239, #27 ) ) REPRESENTATION_CONTEXT ( 'NONE', 'WORKASPACE' ) );
#155 = DIRECTION ( 'NONE',  ( -0.000000000000000000, -0.000000000000000000, -1.000000000000000000 ) ) ;
#156 = LINE ( 'NONE', #208, #99 ) ;
#157 = FACE_OUTER_BOUND ( 'NONE', #136, .T. ) ;
#158 = CARTESIAN_POINT ( 'NONE',  ( -4.000000000000000000, 0.000000000000000000, 0.000000000000000000 ) ) ;
#159 = PERSON ( 'NEURÈENÝ', 'NEURÈENÝ', 'NEURÈENÝ', ('NEURÈENÝ'), ('NEURÈENÝ'), ('NEURÈENÝ') ) ;
#160 = CARTESIAN_POINT ( 'NONE',  ( 0.000000000000000000, 0.000000000000000000, 3.000000000000000000 ) ) ;
#161 = CARTESIAN_POINT ( 'NONE',  ( 0.000000000000000000, 0.000000000000000000, 0.000000000000000000 ) ) ;
#162 = PERSON_AND_ORGANIZATION ( #159, #214 ) ;
#163 = CC_DESIGN_PERSON_AND_ORGANIZATION_ASSIGNMENT ( #29, #56, ( #82 ) ) ;
#164 = EDGE_LOOP ( 'NONE', ( #123, #139, #228, #7 ) ) ;
#165 = DIRECTION ( 'NONE',  ( 0.000000000000000000, 0.000000000000000000, 1.000000000000000000 ) ) ;
#166 = EDGE_LOOP ( 'NONE', ( #106, #105, #173, #184 ) ) ;
#167 = FACE_OUTER_BOUND ( 'NONE', #227, .T. ) ;
#168 = PRODUCT_RELATED_PRODUCT_CATEGORY ( 'detail', '', ( #82 ) ) ;
#169 = CARTESIAN_POINT ( 'NONE',  ( 0.000000000000000000, 0.000000000000000000, 3.000000000000000000 ) ) ;
#170 = DATE_AND_TIME ( #31, #71 ) ;
#171 = DIRECTION ( 'NONE',  ( 1.000000000000000000, 0.000000000000000000, 0.000000000000000000 ) ) ;
#172 = FACE_OUTER_BOUND ( 'NONE', #164, .T. ) ;
#173 = ORIENTED_EDGE ( 'NONE', *, *, #238, .T. ) ;
#174 = CARTESIAN_POINT ( 'NONE',  ( -4.000000000000000000, 0.000000000000000000, 3.000000000000000000 ) ) ;
#175 = DIRECTION ( 'NONE',  ( -1.000000000000000000, 0.000000000000000000, 0.000000000000000000 ) ) ;
#176 = CC_DESIGN_APPROVAL ( #58, ( #11 ) ) ;
#177 = DIRECTION ( 'NONE',  ( -0.000000000000000000, -0.000000000000000000, -1.000000000000000000 ) ) ;
#178 = DATE_AND_TIME ( #97, #190 ) ;
#179 = CIRCLE ( 'NONE', #216, 4.000000000000000000 ) ;
#180 = EDGE_CURVE ( 'NONE', #246, #130, #243, .T. ) ;
#181 = PERSON_AND_ORGANIZATION ( #159, #214 ) ;
#182 = CARTESIAN_POINT ( 'NONE',  ( 4.000000000000000000, 4.898587196589412829E-16, 3.000000000000000000 ) ) ;
#183 = SECURITY_CLASSIFICATION ( '', '', #98 ) ;
#184 = ORIENTED_EDGE ( 'NONE', *, *, #212, .T. ) ;
#185 = APPROVAL_DATE_TIME ( #244, #137 ) ;
#186 = ORIENTED_EDGE ( 'NONE', *, *, #218, .F. ) ;
#187 = LOCAL_TIME ( 17, 9, 20.00000000000000000, #146 ) ;
#188 = ORIENTED_EDGE ( 'NONE', *, *, #198, .F. ) ;
#189 = PLANE ( 'NONE',  #91 ) ;
#190 = LOCAL_TIME ( 17, 9, 20.00000000000000000, #79 ) ;
#191 = COORDINATED_UNIVERSAL_TIME_OFFSET ( 1, 0, .AHEAD. ) ;
#192 = DIRECTION ( 'NONE',  ( 0.000000000000000000, 0.000000000000000000, 1.000000000000000000 ) ) ;
#193 = APPLICATION_CONTEXT ( 'configuration controlled 3d designs of mechanical parts and assemblies' ) ;
#194 = AXIS2_PLACEMENT_3D ( 'NONE', #160, #40, #236 ) ;
#195 = VECTOR ( 'NONE', #177, 1000.000000000000000 ) ;
#196 = CARTESIAN_POINT ( 'NONE',  ( 0.000000000000000000, 0.000000000000000000, 3.000000000000000000 ) ) ;
#197 = DIRECTION ( 'NONE',  ( -0.000000000000000000, -0.000000000000000000, -1.000000000000000000 ) ) ;
#198 = EDGE_CURVE ( 'NONE', #78, #5, #133, .T. ) ;
#199 = LINE ( 'NONE', #182, #229 ) ;
#200 = EDGE_LOOP ( 'NONE', ( #203, #54, #26, #127 ) ) ;
#201 = ORIENTED_EDGE ( 'NONE', *, *, #218, .T. ) ;
#202 = DATE_AND_TIME ( #129, #187 ) ;
#203 = ORIENTED_EDGE ( 'NONE', *, *, #89, .F. ) ;
#204 = APPROVAL_STATUS ( 'not_yet_approved' ) ;
#205 = PLANE ( 'NONE',  #125 ) ;
#206 = ADVANCED_FACE ( 'NONE', ( #50 ), #255, .T. ) ;
#207 = AXIS2_PLACEMENT_3D ( 'NONE', #143, #119, #141 ) ;
#208 = CARTESIAN_POINT ( 'NONE',  ( -2.000000000000000000, 0.000000000000000000, 500.0000000000000000 ) ) ;
#209 = DIRECTION ( 'NONE',  ( -0.000000000000000000, -0.000000000000000000, -1.000000000000000000 ) ) ;
#210 = AXIS2_PLACEMENT_3D ( 'NONE', #112, #152, #134 ) ;
#211 = VERTEX_POINT ( 'NONE', #158 ) ;
#212 = EDGE_CURVE ( 'NONE', #211, #247, #140, .T. ) ;
#213 = CARTESIAN_POINT ( 'NONE',  ( -4.000000000000000000, 0.000000000000000000, 3.000000000000000000 ) ) ;
#214 = ORGANIZATION ( 'NEURÈENÝ', 'NEURÈENÝ', '' ) ;
#215 = DIRECTION ( 'NONE',  ( 0.000000000000000000, 0.000000000000000000, 1.000000000000000000 ) ) ;
#216 = AXIS2_PLACEMENT_3D ( 'NONE', #67, #192, #32 ) ;
#217 = APPLICATION_CONTEXT ( 'configuration controlled 3d designs of mechanical parts and assemblies' ) ;
#218 = EDGE_CURVE ( 'NONE', #10, #81, #33, .T. ) ;
#219 = PERSON_AND_ORGANIZATION ( #159, #214 ) ;
#220 = ORIENTED_EDGE ( 'NONE', *, *, #212, .F. ) ;
#221 = PERSON_AND_ORGANIZATION_ROLE ( 'creator' ) ;
#222 = CLOSED_SHELL ( 'NONE', ( #206, #147, #113, #34, #102, #151, #120 ) ) ;
#223 = CIRCLE ( 'NONE', #240, 4.000000000000000000 ) ;
#224 = CC_DESIGN_PERSON_AND_ORGANIZATION_ASSIGNMENT ( #150, #9, ( #117 ) ) ;
#225 = CARTESIAN_POINT ( 'NONE',  ( 0.000000000000000000, 0.000000000000000000, 0.000000000000000000 ) ) ;
#226 = CC_DESIGN_APPROVAL ( #137, ( #117 ) ) ;
#227 = EDGE_LOOP ( 'NONE', ( #220, #60 ) ) ;
#228 = ORIENTED_EDGE ( 'NONE', *, *, #16, .T. ) ;
#229 = VECTOR ( 'NONE', #148, 1000.000000000000000 ) ;
#230 = DIRECTION ( 'NONE',  ( 0.000000000000000000, 0.000000000000000000, 1.000000000000000000 ) ) ;
#231 = CARTESIAN_POINT ( 'NONE',  ( 0.000000000000000000, 0.000000000000000000, 0.000000000000000000 ) ) ;
#232 = CC_DESIGN_DATE_AND_TIME_ASSIGNMENT ( #124, #88, ( #183 ) ) ;
#233 = DIRECTION ( 'NONE',  ( 0.000000000000000000, 0.000000000000000000, 1.000000000000000000 ) ) ;
#234 = DIRECTION ( 'NONE',  ( -1.000000000000000000, 0.000000000000000000, 0.000000000000000000 ) ) ;
#235 = CARTESIAN_POINT ( 'NONE',  ( 0.000000000000000000, 0.000000000000000000, 500.0000000000000000 ) ) ;
#236 = DIRECTION ( 'NONE',  ( -1.000000000000000000, 0.000000000000000000, 0.000000000000000000 ) ) ;
#237 = CYLINDRICAL_SURFACE ( 'NONE', #114, 2.000000000000000000 ) ;
#238 = EDGE_CURVE ( 'NONE', #130, #211, #96, .T. ) ;
#239 =( NAMED_UNIT ( * ) PLANE_ANGLE_UNIT ( ) SI_UNIT ( $, .RADIAN. ) );
#240 = AXIS2_PLACEMENT_3D ( 'NONE', #109, #15, #132 ) ;
#241 = APPLICATION_PROTOCOL_DEFINITION ( 'international standard', 'config_control_design', 1994, #217 ) ;
#242 = PRODUCT_DEFINITION_SHAPE ( 'NONE', 'NONE',  #117 ) ;
#243 = CIRCLE ( 'NONE', #207, 4.000000000000000000 ) ;
#244 = DATE_AND_TIME ( #59, #37 ) ;
#245 = PERSON_AND_ORGANIZATION ( #159, #214 ) ;
#246 = VERTEX_POINT ( 'NONE', #36 ) ;
#247 = VERTEX_POINT ( 'NONE', #72 ) ;
#248 = DIRECTION ( 'NONE',  ( 1.000000000000000000, 0.000000000000000000, -0.000000000000000000 ) ) ;
#249 = APPROVAL_PERSON_ORGANIZATION ( #13, #253, #250 ) ;
#250 = APPROVAL_ROLE ( '' ) ;
#251 = CC_DESIGN_SECURITY_CLASSIFICATION ( #183, ( #11 ) ) ;
#252 = DIRECTION ( 'NONE',  ( 1.000000000000000000, 0.000000000000000000, 0.000000000000000000 ) ) ;
#253 = APPROVAL ( #204, 'NEURÈENÝ' ) ;
#254 = DIRECTION ( 'NONE',  ( -0.000000000000000000, -0.000000000000000000, -1.000000000000000000 ) ) ;
#255 = CYLINDRICAL_SURFACE ( 'NONE', #23, 2.000000000000000000 ) ;
ENDSEC;
END-ISO-10303-21;
