ISO-10303-21;
HEADER;
FILE_DESCRIPTION (( 'STEP AP203' ),
    '1' );
FILE_NAME ('5519.STEP',
    '2023-02-13T09:49:30',
    ( '' ),
    ( '' ),
    'SwSTEP 2.0',
    'SolidWorks 2019',
    '' );
FILE_SCHEMA (( 'CONFIG_CONTROL_DESIGN' ));
ENDSEC;

DATA;
#1 = ORIENTED_EDGE ( 'NONE', *, *, #2, .T. ) ;
#2 = EDGE_CURVE ( 'NONE', #79, #68, #188, .T. ) ;
#3 = EDGE_LOOP ( 'NONE', ( #197, #232, #28, #19 ) ) ;
#4 = APPROVAL_STATUS ( 'not_yet_approved' ) ;
#5 = DIRECTION ( 'NONE',  ( 1.000000000000000000, 0.000000000000000000, 0.000000000000000000 ) ) ;
#6 = APPROVAL_PERSON_ORGANIZATION ( #191, #58, #99 ) ;
#7 = AXIS2_PLACEMENT_3D ( 'NONE', #30, #70, #71 ) ;
#8 = LOCAL_TIME ( 10, 49, 30.00000000000000000, #176 ) ;
#9 = CARTESIAN_POINT ( 'NONE',  ( 0.000000000000000000, 0.000000000000000000, 500.0000000000000000 ) ) ;
#10 = EDGE_CURVE ( 'NONE', #68, #79, #107, .T. ) ;
#11 = DIRECTION ( 'NONE',  ( 1.000000000000000000, 0.000000000000000000, -0.000000000000000000 ) ) ;
#12 = DIRECTION ( 'NONE',  ( -0.000000000000000000, -0.000000000000000000, -1.000000000000000000 ) ) ;
#13 = CLOSED_SHELL ( 'NONE', ( #61, #86, #248, #46, #237, #84, #175 ) ) ;
#14 = VECTOR ( 'NONE', #158, 1000.000000000000000 ) ;
#15 = DIRECTION ( 'NONE',  ( 0.000000000000000000, 0.000000000000000000, 1.000000000000000000 ) ) ;
#16 = PERSON_AND_ORGANIZATION ( #120, #196 ) ;
#17 = APPROVAL_STATUS ( 'not_yet_approved' ) ;
#18 = ADVANCED_BREP_SHAPE_REPRESENTATION ( '5519', ( #126, #134 ), #80 ) ;
#19 = ORIENTED_EDGE ( 'NONE', *, *, #53, .T. ) ;
#20 = VECTOR ( 'NONE', #12, 1000.000000000000000 ) ;
#21 = CC_DESIGN_DATE_AND_TIME_ASSIGNMENT ( #194, #225, ( #179 ) ) ;
#22 = VERTEX_POINT ( 'NONE', #219 ) ;
#23 = APPROVAL_PERSON_ORGANIZATION ( #77, #224, #189 ) ;
#24 = UNCERTAINTY_MEASURE_WITH_UNIT (LENGTH_MEASURE( 1.000000000000000082E-05 ), #100, 'distance_accuracy_value', 'NONE');
#25 = DIRECTION ( 'NONE',  ( 1.000000000000000000, 0.000000000000000000, 0.000000000000000000 ) ) ;
#26 = CIRCLE ( 'NONE', #124, 11.00000000000000000 ) ;
#27 = AXIS2_PLACEMENT_3D ( 'NONE', #243, #221, #25 ) ;
#28 = ORIENTED_EDGE ( 'NONE', *, *, #208, .T. ) ;
#29 = CARTESIAN_POINT ( 'NONE',  ( 0.000000000000000000, 0.000000000000000000, 7.000000000000000000 ) ) ;
#30 = CARTESIAN_POINT ( 'NONE',  ( 0.000000000000000000, 0.000000000000000000, 0.000000000000000000 ) ) ;
#31 = DATE_AND_TIME ( #206, #145 ) ;
#32 = CARTESIAN_POINT ( 'NONE',  ( 0.000000000000000000, 0.000000000000000000, 500.0000000000000000 ) ) ;
#33 = PRODUCT_DEFINITION_FORMATION_WITH_SPECIFIED_SOURCE ( 'LIBOVOLNÝ', '', #231, .NOT_KNOWN. ) ;
#34 = DATE_TIME_ROLE ( 'creation_date' ) ;
#35 = PERSON_AND_ORGANIZATION ( #120, #196 ) ;
#36 = CALENDAR_DATE ( 2023, 13, 2 ) ;
#37 = PRODUCT_DEFINITION ( 'NEZNÁMÝ', '', #33, #146 ) ;
#38 = DIRECTION ( 'NONE',  ( 0.000000000000000000, 0.000000000000000000, 1.000000000000000000 ) ) ;
#39 = EDGE_CURVE ( 'NONE', #104, #79, #47, .T. ) ;
#40 = VERTEX_POINT ( 'NONE', #91 ) ;
#41 = AXIS2_PLACEMENT_3D ( 'NONE', #218, #205, #69 ) ;
#42 = ORIENTED_EDGE ( 'NONE', *, *, #200, .T. ) ;
#43 = DIRECTION ( 'NONE',  ( 1.000000000000000000, 0.000000000000000000, 0.000000000000000000 ) ) ;
#44 = ORIENTED_EDGE ( 'NONE', *, *, #10, .T. ) ;
#45 = DIRECTION ( 'NONE',  ( -0.000000000000000000, -0.000000000000000000, -1.000000000000000000 ) ) ;
#46 = ADVANCED_FACE ( 'NONE', ( #246, #128 ), #222, .T. ) ;
#47 = LINE ( 'NONE', #127, #20 ) ;
#48 = DIRECTION ( 'NONE',  ( 1.000000000000000000, 0.000000000000000000, 0.000000000000000000 ) ) ;
#49 = ORIENTED_EDGE ( 'NONE', *, *, #53, .F. ) ;
#50 = CARTESIAN_POINT ( 'NONE',  ( 0.000000000000000000, 0.000000000000000000, 7.000000000000000000 ) ) ;
#51 = AXIS2_PLACEMENT_3D ( 'NONE', #32, #15, #97 ) ;
#52 = FACE_OUTER_BOUND ( 'NONE', #56, .T. ) ;
#53 = EDGE_CURVE ( 'NONE', #22, #211, #85, .T. ) ;
#54 = APPROVAL_DATE_TIME ( #75, #58 ) ;
#55 = LINE ( 'NONE', #78, #96 ) ;
#56 = EDGE_LOOP ( 'NONE', ( #101, #42, #143, #212 ) ) ;
#57 = DATE_AND_TIME ( #160, #217 ) ;
#58 = APPROVAL ( #17, 'NEURÈENÝ' ) ;
#59 = ORIENTED_EDGE ( 'NONE', *, *, #110, .T. ) ;
#60 = EDGE_LOOP ( 'NONE', ( #144, #93 ) ) ;
#61 = ADVANCED_FACE ( 'NONE', ( #162 ), #66, .T. ) ;
#62 = APPLICATION_PROTOCOL_DEFINITION ( 'international standard', 'config_control_design', 1994, #244 ) ;
#63 = VERTEX_POINT ( 'NONE', #167 ) ;
#64 = AXIS2_PLACEMENT_3D ( 'NONE', #125, #201, #148 ) ;
#65 = CC_DESIGN_SECURITY_CLASSIFICATION ( #179, ( #33 ) ) ;
#66 = CYLINDRICAL_SURFACE ( 'NONE', #41, 7.500000000000000000 ) ;
#67 = EDGE_CURVE ( 'NONE', #211, #22, #240, .T. ) ;
#68 = VERTEX_POINT ( 'NONE', #105 ) ;
#69 = DIRECTION ( 'NONE',  ( -1.000000000000000000, 0.000000000000000000, 0.000000000000000000 ) ) ;
#70 = DIRECTION ( 'NONE',  ( 0.000000000000000000, 0.000000000000000000, 1.000000000000000000 ) ) ;
#71 = DIRECTION ( 'NONE',  ( 1.000000000000000000, 0.000000000000000000, 0.000000000000000000 ) ) ;
#72 = AXIS2_PLACEMENT_3D ( 'NONE', #118, #171, #226 ) ;
#73 = CYLINDRICAL_SURFACE ( 'NONE', #119, 7.500000000000000000 ) ;
#74 = CARTESIAN_POINT ( 'NONE',  ( -11.00000000000000000, 0.000000000000000000, 7.000000000000000000 ) ) ;
#75 = DATE_AND_TIME ( #172, #202 ) ;
#76 = DIRECTION ( 'NONE',  ( -0.000000000000000000, -0.000000000000000000, -1.000000000000000000 ) ) ;
#77 = PERSON_AND_ORGANIZATION ( #120, #196 ) ;
#78 = CARTESIAN_POINT ( 'NONE',  ( 7.500000000000000000, 9.184850993605147944E-16, 500.0000000000000000 ) ) ;
#79 = VERTEX_POINT ( 'NONE', #108 ) ;
#80 =( GEOMETRIC_REPRESENTATION_CONTEXT ( 3 ) GLOBAL_UNCERTAINTY_ASSIGNED_CONTEXT ( ( #24 ) ) GLOBAL_UNIT_ASSIGNED_CONTEXT ( ( #100, #102, #234 ) ) REPRESENTATION_CONTEXT ( 'NONE', 'WORKASPACE' ) );
#81 = ORIENTED_EDGE ( 'NONE', *, *, #238, .T. ) ;
#82 = ORIENTED_EDGE ( 'NONE', *, *, #10, .F. ) ;
#83 = APPLICATION_CONTEXT ( 'configuration controlled 3d designs of mechanical parts and assemblies' ) ;
#84 = ADVANCED_FACE ( 'NONE', ( #150 ), #73, .T. ) ;
#85 = CIRCLE ( 'NONE', #27, 11.00000000000000000 ) ;
#86 = ADVANCED_FACE ( 'NONE', ( #52 ), #111, .T. ) ;
#87 = ORIENTED_EDGE ( 'NONE', *, *, #247, .F. ) ;
#88 = PERSON_AND_ORGANIZATION ( #120, #196 ) ;
#89 = COORDINATED_UNIVERSAL_TIME_OFFSET ( 1, 0, .AHEAD. ) ;
#90 = PRODUCT_RELATED_PRODUCT_CATEGORY ( 'detail', '', ( #231 ) ) ;
#91 = CARTESIAN_POINT ( 'NONE',  ( 7.500000000000000000, 9.184850993605147944E-16, 500.0000000000000000 ) ) ;
#92 = DIRECTION ( 'NONE',  ( 0.000000000000000000, 0.000000000000000000, 1.000000000000000000 ) ) ;
#93 = ORIENTED_EDGE ( 'NONE', *, *, #132, .T. ) ;
#94 = DIRECTION ( 'NONE',  ( -0.000000000000000000, -0.000000000000000000, -1.000000000000000000 ) ) ;
#95 = CARTESIAN_POINT ( 'NONE',  ( 11.00000000000000000, 1.347111479062088405E-15, 7.000000000000000000 ) ) ;
#96 = VECTOR ( 'NONE', #137, 1000.000000000000000 ) ;
#97 = DIRECTION ( 'NONE',  ( 1.000000000000000000, 0.000000000000000000, 0.000000000000000000 ) ) ;
#98 = PERSON_AND_ORGANIZATION_ROLE ( 'classification_officer' ) ;
#99 = APPROVAL_ROLE ( '' ) ;
#100 =( LENGTH_UNIT ( ) NAMED_UNIT ( * ) SI_UNIT ( .MILLI., .METRE. ) );
#101 = ORIENTED_EDGE ( 'NONE', *, *, #132, .F. ) ;
#102 =( NAMED_UNIT ( * ) PLANE_ANGLE_UNIT ( ) SI_UNIT ( $, .RADIAN. ) );
#103 = APPLICATION_PROTOCOL_DEFINITION ( 'international standard', 'config_control_design', 1994, #83 ) ;
#104 = VERTEX_POINT ( 'NONE', #154 ) ;
#105 = CARTESIAN_POINT ( 'NONE',  ( 7.500000000000000000, 9.184850993605147944E-16, 7.000000000000000000 ) ) ;
#106 = DIRECTION ( 'NONE',  ( -1.000000000000000000, 0.000000000000000000, 0.000000000000000000 ) ) ;
#107 = CIRCLE ( 'NONE', #64, 7.500000000000000000 ) ;
#108 = CARTESIAN_POINT ( 'NONE',  ( -7.500000000000000000, 0.000000000000000000, 7.000000000000000000 ) ) ;
#109 = ORIENTED_EDGE ( 'NONE', *, *, #110, .F. ) ;
#110 = EDGE_CURVE ( 'NONE', #40, #104, #174, .T. ) ;
#111 = CYLINDRICAL_SURFACE ( 'NONE', #203, 11.00000000000000000 ) ;
#112 = APPROVAL_STATUS ( 'not_yet_approved' ) ;
#113 = CIRCLE ( 'NONE', #51, 7.500000000000000000 ) ;
#114 = EDGE_CURVE ( 'NONE', #63, #181, #135, .T. ) ;
#115 = LINE ( 'NONE', #74, #14 ) ;
#116 = FACE_OUTER_BOUND ( 'NONE', #213, .T. ) ;
#117 = PRODUCT_DEFINITION_SHAPE ( 'NONE', 'NONE',  #37 ) ;
#118 = CARTESIAN_POINT ( 'NONE',  ( 0.000000000000000000, 0.000000000000000000, 7.000000000000000000 ) ) ;
#119 = AXIS2_PLACEMENT_3D ( 'NONE', #149, #94, #106 ) ;
#120 = PERSON ( 'NEURÈENÝ', 'NEURÈENÝ', 'NEURÈENÝ', ('NEURÈENÝ'), ('NEURÈENÝ'), ('NEURÈENÝ') ) ;
#121 = CARTESIAN_POINT ( 'NONE',  ( 0.000000000000000000, 0.000000000000000000, 0.000000000000000000 ) ) ;
#122 = APPROVAL_ROLE ( '' ) ;
#123 = LOCAL_TIME ( 10, 49, 30.00000000000000000, #253 ) ;
#124 = AXIS2_PLACEMENT_3D ( 'NONE', #168, #185, #152 ) ;
#125 = CARTESIAN_POINT ( 'NONE',  ( 0.000000000000000000, 0.000000000000000000, 7.000000000000000000 ) ) ;
#126 = MANIFOLD_SOLID_BREP ( 'Pøidat vysunutím3', #13 ) ;
#127 = CARTESIAN_POINT ( 'NONE',  ( -7.500000000000000000, 0.000000000000000000, 500.0000000000000000 ) ) ;
#128 = FACE_OUTER_BOUND ( 'NONE', #60, .T. ) ;
#129 = CC_DESIGN_PERSON_AND_ORGANIZATION_ASSIGNMENT ( #239, #236, ( #231 ) ) ;
#130 = DIRECTION ( 'NONE',  ( -1.000000000000000000, 0.000000000000000000, 0.000000000000000000 ) ) ;
#131 = PERSON_AND_ORGANIZATION_ROLE ( 'creator' ) ;
#132 = EDGE_CURVE ( 'NONE', #181, #63, #26, .T. ) ;
#133 = DATE_AND_TIME ( #36, #8 ) ;
#134 = AXIS2_PLACEMENT_3D ( 'NONE', #142, #182, #241 ) ;
#135 = CIRCLE ( 'NONE', #151, 11.00000000000000000 ) ;
#136 = SHAPE_DEFINITION_REPRESENTATION ( #117, #18 ) ;
#137 = DIRECTION ( 'NONE',  ( -0.000000000000000000, -0.000000000000000000, -1.000000000000000000 ) ) ;
#138 = CC_DESIGN_APPROVAL ( #223, ( #37 ) ) ;
#139 = EDGE_LOOP ( 'NONE', ( #109, #81, #44, #229 ) ) ;
#140 = APPROVAL_DATE_TIME ( #57, #223 ) ;
#141 = AXIS2_PLACEMENT_3D ( 'NONE', #50, #170, #11 ) ;
#142 = CARTESIAN_POINT ( 'NONE',  ( 0.000000000000000000, 0.000000000000000000, 0.000000000000000000 ) ) ;
#143 = ORIENTED_EDGE ( 'NONE', *, *, #67, .T. ) ;
#144 = ORIENTED_EDGE ( 'NONE', *, *, #114, .T. ) ;
#145 = LOCAL_TIME ( 10, 49, 30.00000000000000000, #153 ) ;
#146 = DESIGN_CONTEXT ( 'detailed design', #244, 'design' ) ;
#147 = CARTESIAN_POINT ( 'NONE',  ( 0.000000000000000000, 0.000000000000000000, 7.000000000000000000 ) ) ;
#148 = DIRECTION ( 'NONE',  ( 1.000000000000000000, 0.000000000000000000, 0.000000000000000000 ) ) ;
#149 = CARTESIAN_POINT ( 'NONE',  ( 0.000000000000000000, 0.000000000000000000, 500.0000000000000000 ) ) ;
#150 = FACE_OUTER_BOUND ( 'NONE', #204, .T. ) ;
#151 = AXIS2_PLACEMENT_3D ( 'NONE', #29, #92, #48 ) ;
#152 = DIRECTION ( 'NONE',  ( 1.000000000000000000, 0.000000000000000000, 0.000000000000000000 ) ) ;
#153 = COORDINATED_UNIVERSAL_TIME_OFFSET ( 1, 0, .AHEAD. ) ;
#154 = CARTESIAN_POINT ( 'NONE',  ( -7.500000000000000000, 0.000000000000000000, 500.0000000000000000 ) ) ;
#155 = CALENDAR_DATE ( 2023, 13, 2 ) ;
#156 = CC_DESIGN_APPROVAL ( #58, ( #179 ) ) ;
#157 = COORDINATED_UNIVERSAL_TIME_OFFSET ( 1, 0, .AHEAD. ) ;
#158 = DIRECTION ( 'NONE',  ( -0.000000000000000000, -0.000000000000000000, -1.000000000000000000 ) ) ;
#159 = APPROVAL_DATE_TIME ( #133, #224 ) ;
#160 = CALENDAR_DATE ( 2023, 13, 2 ) ;
#161 = ORIENTED_EDGE ( 'NONE', *, *, #2, .F. ) ;
#162 = FACE_OUTER_BOUND ( 'NONE', #139, .T. ) ;
#163 = AXIS2_PLACEMENT_3D ( 'NONE', #9, #187, #249 ) ;
#164 = FACE_OUTER_BOUND ( 'NONE', #235, .T. ) ;
#165 = CC_DESIGN_PERSON_AND_ORGANIZATION_ASSIGNMENT ( #16, #255, ( #33 ) ) ;
#166 = ORIENTED_EDGE ( 'NONE', *, *, #247, .T. ) ;
#167 = CARTESIAN_POINT ( 'NONE',  ( -11.00000000000000000, 0.000000000000000000, 7.000000000000000000 ) ) ;
#168 = CARTESIAN_POINT ( 'NONE',  ( 0.000000000000000000, 0.000000000000000000, 7.000000000000000000 ) ) ;
#169 = VECTOR ( 'NONE', #76, 1000.000000000000000 ) ;
#170 = DIRECTION ( 'NONE',  ( 0.000000000000000000, 0.000000000000000000, 1.000000000000000000 ) ) ;
#171 = DIRECTION ( 'NONE',  ( -0.000000000000000000, -0.000000000000000000, -1.000000000000000000 ) ) ;
#172 = CALENDAR_DATE ( 2023, 13, 2 ) ;
#173 = CC_DESIGN_APPROVAL ( #224, ( #33 ) ) ;
#174 = CIRCLE ( 'NONE', #193, 7.500000000000000000 ) ;
#175 = ADVANCED_FACE ( 'NONE', ( #164 ), #245, .T. ) ;
#176 = COORDINATED_UNIVERSAL_TIME_OFFSET ( 1, 0, .AHEAD. ) ;
#177 = ORIENTED_EDGE ( 'NONE', *, *, #39, .T. ) ;
#178 = AXIS2_PLACEMENT_3D ( 'NONE', #183, #216, #43 ) ;
#179 = SECURITY_CLASSIFICATION ( '', '', #207 ) ;
#180 = MECHANICAL_CONTEXT ( 'NONE', #83, 'mechanical' ) ;
#181 = VERTEX_POINT ( 'NONE', #95 ) ;
#182 = DIRECTION ( 'NONE',  ( 0.000000000000000000, 0.000000000000000000, 1.000000000000000000 ) ) ;
#183 = CARTESIAN_POINT ( 'NONE',  ( 0.000000000000000000, 0.000000000000000000, 7.000000000000000000 ) ) ;
#184 = DIRECTION ( 'NONE',  ( 0.000000000000000000, 0.000000000000000000, 1.000000000000000000 ) ) ;
#185 = DIRECTION ( 'NONE',  ( 0.000000000000000000, 0.000000000000000000, 1.000000000000000000 ) ) ;
#186 = ORIENTED_EDGE ( 'NONE', *, *, #238, .F. ) ;
#187 = DIRECTION ( 'NONE',  ( 0.000000000000000000, 0.000000000000000000, 1.000000000000000000 ) ) ;
#188 = CIRCLE ( 'NONE', #178, 7.500000000000000000 ) ;
#189 = APPROVAL_ROLE ( '' ) ;
#190 = CARTESIAN_POINT ( 'NONE',  ( 11.00000000000000000, 1.347111479062088405E-15, 0.000000000000000000 ) ) ;
#191 = PERSON_AND_ORGANIZATION ( #120, #196 ) ;
#192 = CC_DESIGN_PERSON_AND_ORGANIZATION_ASSIGNMENT ( #242, #131, ( #37 ) ) ;
#193 = AXIS2_PLACEMENT_3D ( 'NONE', #220, #184, #5 ) ;
#194 = DATE_AND_TIME ( #155, #123 ) ;
#195 = ORIENTED_EDGE ( 'NONE', *, *, #67, .F. ) ;
#196 = ORGANIZATION ( 'NEURÈENÝ', 'NEURÈENÝ', '' ) ;
#197 = ORIENTED_EDGE ( 'NONE', *, *, #200, .F. ) ;
#198 = CC_DESIGN_PERSON_AND_ORGANIZATION_ASSIGNMENT ( #227, #98, ( #179 ) ) ;
#199 = AXIS2_PLACEMENT_3D ( 'NONE', #121, #38, #228 ) ;
#200 = EDGE_CURVE ( 'NONE', #181, #211, #251, .T. ) ;
#201 = DIRECTION ( 'NONE',  ( 0.000000000000000000, 0.000000000000000000, 1.000000000000000000 ) ) ;
#202 = LOCAL_TIME ( 10, 49, 30.00000000000000000, #157 ) ;
#203 = AXIS2_PLACEMENT_3D ( 'NONE', #147, #45, #130 ) ;
#204 = EDGE_LOOP ( 'NONE', ( #186, #87, #177, #1 ) ) ;
#205 = DIRECTION ( 'NONE',  ( -0.000000000000000000, -0.000000000000000000, -1.000000000000000000 ) ) ;
#206 = CALENDAR_DATE ( 2023, 13, 2 ) ;
#207 = SECURITY_CLASSIFICATION_LEVEL ( 'unclassified' ) ;
#208 = EDGE_CURVE ( 'NONE', #63, #22, #115, .T. ) ;
#209 = CYLINDRICAL_SURFACE ( 'NONE', #72, 11.00000000000000000 ) ;
#210 = FACE_OUTER_BOUND ( 'NONE', #3, .T. ) ;
#211 = VERTEX_POINT ( 'NONE', #190 ) ;
#212 = ORIENTED_EDGE ( 'NONE', *, *, #208, .F. ) ;
#213 = EDGE_LOOP ( 'NONE', ( #49, #195 ) ) ;
#214 = CC_DESIGN_DATE_AND_TIME_ASSIGNMENT ( #31, #34, ( #37 ) ) ;
#215 = EDGE_LOOP ( 'NONE', ( #161, #82 ) ) ;
#216 = DIRECTION ( 'NONE',  ( 0.000000000000000000, 0.000000000000000000, 1.000000000000000000 ) ) ;
#217 = LOCAL_TIME ( 10, 49, 30.00000000000000000, #89 ) ;
#218 = CARTESIAN_POINT ( 'NONE',  ( 0.000000000000000000, 0.000000000000000000, 500.0000000000000000 ) ) ;
#219 = CARTESIAN_POINT ( 'NONE',  ( -11.00000000000000000, 0.000000000000000000, 0.000000000000000000 ) ) ;
#220 = CARTESIAN_POINT ( 'NONE',  ( 0.000000000000000000, 0.000000000000000000, 500.0000000000000000 ) ) ;
#221 = DIRECTION ( 'NONE',  ( 0.000000000000000000, 0.000000000000000000, 1.000000000000000000 ) ) ;
#222 = PLANE ( 'NONE',  #141 ) ;
#223 = APPROVAL ( #4, 'NEURÈENÝ' ) ;
#224 = APPROVAL ( #112, 'NEURÈENÝ' ) ;
#225 = DATE_TIME_ROLE ( 'classification_date' ) ;
#226 = DIRECTION ( 'NONE',  ( -1.000000000000000000, 0.000000000000000000, 0.000000000000000000 ) ) ;
#227 = PERSON_AND_ORGANIZATION ( #120, #196 ) ;
#228 = DIRECTION ( 'NONE',  ( 1.000000000000000000, 0.000000000000000000, -0.000000000000000000 ) ) ;
#229 = ORIENTED_EDGE ( 'NONE', *, *, #39, .F. ) ;
#230 = PERSON_AND_ORGANIZATION_ROLE ( 'design_supplier' ) ;
#231 = PRODUCT ( '5519', '5519', '', ( #180 ) ) ;
#232 = ORIENTED_EDGE ( 'NONE', *, *, #114, .F. ) ;
#233 = PLANE ( 'NONE',  #199 ) ;
#234 =( NAMED_UNIT ( * ) SI_UNIT ( $, .STERADIAN. ) SOLID_ANGLE_UNIT ( ) );
#235 = EDGE_LOOP ( 'NONE', ( #166, #59 ) ) ;
#236 = PERSON_AND_ORGANIZATION_ROLE ( 'design_owner' ) ;
#237 = ADVANCED_FACE ( 'NONE', ( #116 ), #233, .F. ) ;
#238 = EDGE_CURVE ( 'NONE', #40, #68, #55, .T. ) ;
#239 = PERSON_AND_ORGANIZATION ( #120, #196 ) ;
#240 = CIRCLE ( 'NONE', #7, 11.00000000000000000 ) ;
#241 = DIRECTION ( 'NONE',  ( 1.000000000000000000, 0.000000000000000000, 0.000000000000000000 ) ) ;
#242 = PERSON_AND_ORGANIZATION ( #120, #196 ) ;
#243 = CARTESIAN_POINT ( 'NONE',  ( 0.000000000000000000, 0.000000000000000000, 0.000000000000000000 ) ) ;
#244 = APPLICATION_CONTEXT ( 'configuration controlled 3d designs of mechanical parts and assemblies' ) ;
#245 = PLANE ( 'NONE',  #163 ) ;
#246 = FACE_BOUND ( 'NONE', #215, .T. ) ;
#247 = EDGE_CURVE ( 'NONE', #104, #40, #113, .T. ) ;
#248 = ADVANCED_FACE ( 'NONE', ( #210 ), #209, .T. ) ;
#249 = DIRECTION ( 'NONE',  ( 1.000000000000000000, 0.000000000000000000, -0.000000000000000000 ) ) ;
#250 = APPROVAL_PERSON_ORGANIZATION ( #88, #223, #122 ) ;
#251 = LINE ( 'NONE', #254, #169 ) ;
#252 = CC_DESIGN_PERSON_AND_ORGANIZATION_ASSIGNMENT ( #35, #230, ( #33 ) ) ;
#253 = COORDINATED_UNIVERSAL_TIME_OFFSET ( 1, 0, .AHEAD. ) ;
#254 = CARTESIAN_POINT ( 'NONE',  ( 11.00000000000000000, 1.347111479062088405E-15, 7.000000000000000000 ) ) ;
#255 = PERSON_AND_ORGANIZATION_ROLE ( 'creator' ) ;
ENDSEC;
END-ISO-10303-21;
