ISO-10303-21;
HEADER;
FILE_DESCRIPTION (( 'STEP AP203' ),
    '1' );
FILE_NAME ('d96a.STEP',
    '2023-02-13T16:23:19',
    ( '' ),
    ( '' ),
    'SwSTEP 2.0',
    'SolidWorks 2019',
    '' );
FILE_SCHEMA (( 'CONFIG_CONTROL_DESIGN' ));
ENDSEC;

DATA;
#1 = EDGE_CURVE ( 'NONE', #217, #137, #185, .T. ) ;
#2 = APPROVAL_PERSON_ORGANIZATION ( #193, #44, #173 ) ;
#3 = DIRECTION ( 'NONE',  ( 1.000000000000000000, 0.000000000000000000, -0.000000000000000000 ) ) ;
#4 = CARTESIAN_POINT ( 'NONE',  ( 0.000000000000000000, 0.000000000000000000, 3.000000000000000000 ) ) ;
#5 = LINE ( 'NONE', #89, #163 ) ;
#6 = DIRECTION ( 'NONE',  ( -0.000000000000000000, -0.000000000000000000, -1.000000000000000000 ) ) ;
#7 = DIRECTION ( 'NONE',  ( 1.000000000000000000, 0.000000000000000000, 0.000000000000000000 ) ) ;
#8 = ADVANCED_FACE ( 'NONE', ( #140 ), #216, .T. ) ;
#9 = LINE ( 'NONE', #145, #242 ) ;
#10 = AXIS2_PLACEMENT_3D ( 'NONE', #76, #105, #3 ) ;
#11 = COORDINATED_UNIVERSAL_TIME_OFFSET ( 1, 0, .AHEAD. ) ;
#12 = PERSON_AND_ORGANIZATION_ROLE ( 'design_owner' ) ;
#13 = DESIGN_CONTEXT ( 'detailed design', #51, 'design' ) ;
#14 = MECHANICAL_CONTEXT ( 'NONE', #37, 'mechanical' ) ;
#15 = PERSON_AND_ORGANIZATION ( #87, #82 ) ;
#16 = ORIENTED_EDGE ( 'NONE', *, *, #146, .T. ) ;
#17 = APPROVAL_PERSON_ORGANIZATION ( #247, #35, #73 ) ;
#18 = EDGE_CURVE ( 'NONE', #59, #194, #28, .T. ) ;
#19 = ORIENTED_EDGE ( 'NONE', *, *, #213, .T. ) ;
#20 = CARTESIAN_POINT ( 'NONE',  ( 0.000000000000000000, 0.000000000000000000, 3.000000000000000000 ) ) ;
#21 = PLANE ( 'NONE',  #10 ) ;
#22 = CC_DESIGN_SECURITY_CLASSIFICATION ( #41, ( #118 ) ) ;
#23 = CARTESIAN_POINT ( 'NONE',  ( 0.000000000000000000, 0.000000000000000000, 250.0000000000000000 ) ) ;
#24 = DIRECTION ( 'NONE',  ( 1.000000000000000000, 0.000000000000000000, -0.000000000000000000 ) ) ;
#25 = DIRECTION ( 'NONE',  ( -0.000000000000000000, -0.000000000000000000, -1.000000000000000000 ) ) ;
#26 = CC_DESIGN_APPROVAL ( #35, ( #172 ) ) ;
#27 = APPROVAL ( #131, 'NEURÈENÝ' ) ;
#28 = CIRCLE ( 'NONE', #218, 1.750000000000000000 ) ;
#29 = EDGE_CURVE ( 'NONE', #194, #59, #125, .T. ) ;
#30 = CARTESIAN_POINT ( 'NONE',  ( 3.500000000000000000, 4.286263797015736595E-16, 0.000000000000000000 ) ) ;
#31 = AXIS2_PLACEMENT_3D ( 'NONE', #69, #144, #64 ) ;
#32 = CARTESIAN_POINT ( 'NONE',  ( -3.500000000000000000, 0.000000000000000000, 3.000000000000000000 ) ) ;
#33 = COORDINATED_UNIVERSAL_TIME_OFFSET ( 1, 0, .AHEAD. ) ;
#34 = CALENDAR_DATE ( 2023, 13, 2 ) ;
#35 = APPROVAL ( #98, 'NEURÈENÝ' ) ;
#36 = VECTOR ( 'NONE', #25, 1000.000000000000000 ) ;
#37 = APPLICATION_CONTEXT ( 'configuration controlled 3d designs of mechanical parts and assemblies' ) ;
#38 = ORIENTED_EDGE ( 'NONE', *, *, #213, .F. ) ;
#39 = CARTESIAN_POINT ( 'NONE',  ( 0.000000000000000000, 0.000000000000000000, 0.000000000000000000 ) ) ;
#40 = ORIENTED_EDGE ( 'NONE', *, *, #147, .F. ) ;
#41 = SECURITY_CLASSIFICATION ( '', '', #191 ) ;
#42 = DIRECTION ( 'NONE',  ( -0.000000000000000000, -0.000000000000000000, -1.000000000000000000 ) ) ;
#43 = DIRECTION ( 'NONE',  ( 0.000000000000000000, 0.000000000000000000, 1.000000000000000000 ) ) ;
#44 = APPROVAL ( #96, 'NEURÈENÝ' ) ;
#45 = ORIENTED_EDGE ( 'NONE', *, *, #29, .T. ) ;
#46 = FACE_OUTER_BOUND ( 'NONE', #219, .T. ) ;
#47 = DIRECTION ( 'NONE',  ( 0.000000000000000000, 0.000000000000000000, 1.000000000000000000 ) ) ;
#48 = ADVANCED_FACE ( 'NONE', ( #97, #199 ), #21, .T. ) ;
#49 = AXIS2_PLACEMENT_3D ( 'NONE', #23, #123, #244 ) ;
#50 = AXIS2_PLACEMENT_3D ( 'NONE', #39, #248, #155 ) ;
#51 = APPLICATION_CONTEXT ( 'configuration controlled 3d designs of mechanical parts and assemblies' ) ;
#52 = CARTESIAN_POINT ( 'NONE',  ( 0.000000000000000000, 0.000000000000000000, 3.000000000000000000 ) ) ;
#53 = PRODUCT_DEFINITION_SHAPE ( 'NONE', 'NONE',  #172 ) ;
#54 = PERSON_AND_ORGANIZATION_ROLE ( 'creator' ) ;
#55 = CC_DESIGN_APPROVAL ( #27, ( #41 ) ) ;
#56 = PERSON_AND_ORGANIZATION_ROLE ( 'classification_officer' ) ;
#57 = EDGE_LOOP ( 'NONE', ( #141, #38, #60, #215 ) ) ;
#58 = PERSON_AND_ORGANIZATION_ROLE ( 'design_supplier' ) ;
#59 = VERTEX_POINT ( 'NONE', #83 ) ;
#60 = ORIENTED_EDGE ( 'NONE', *, *, #229, .T. ) ;
#61 = VERTEX_POINT ( 'NONE', #126 ) ;
#62 = CARTESIAN_POINT ( 'NONE',  ( 0.000000000000000000, 0.000000000000000000, 0.000000000000000000 ) ) ;
#63 = AXIS2_PLACEMENT_3D ( 'NONE', #188, #112, #7 ) ;
#64 = DIRECTION ( 'NONE',  ( -1.000000000000000000, 0.000000000000000000, 0.000000000000000000 ) ) ;
#65 = CARTESIAN_POINT ( 'NONE',  ( 3.500000000000000000, 4.286263797015736595E-16, 3.000000000000000000 ) ) ;
#66 = AXIS2_PLACEMENT_3D ( 'NONE', #166, #90, #24 ) ;
#67 = ADVANCED_FACE ( 'NONE', ( #130 ), #245, .F. ) ;
#68 = AXIS2_PLACEMENT_3D ( 'NONE', #4, #204, #84 ) ;
#69 = CARTESIAN_POINT ( 'NONE',  ( 0.000000000000000000, 0.000000000000000000, 250.0000000000000000 ) ) ;
#70 = DIRECTION ( 'NONE',  ( -0.000000000000000000, -0.000000000000000000, -1.000000000000000000 ) ) ;
#71 = AXIS2_PLACEMENT_3D ( 'NONE', #62, #182, #235 ) ;
#72 = EDGE_CURVE ( 'NONE', #102, #99, #174, .T. ) ;
#73 = APPROVAL_ROLE ( '' ) ;
#74 = APPLICATION_PROTOCOL_DEFINITION ( 'international standard', 'config_control_design', 1994, #51 ) ;
#75 = APPROVAL_DATE_TIME ( #250, #44 ) ;
#76 = CARTESIAN_POINT ( 'NONE',  ( 0.000000000000000000, 0.000000000000000000, 3.000000000000000000 ) ) ;
#77 = DATE_AND_TIME ( #230, #222 ) ;
#78 = VERTEX_POINT ( 'NONE', #129 ) ;
#79 = SHAPE_DEFINITION_REPRESENTATION ( #53, #189 ) ;
#80 = EDGE_LOOP ( 'NONE', ( #119, #160 ) ) ;
#81 = CARTESIAN_POINT ( 'NONE',  ( 0.000000000000000000, 0.000000000000000000, 3.000000000000000000 ) ) ;
#82 = ORGANIZATION ( 'NEURÈENÝ', 'NEURÈENÝ', '' ) ;
#83 = CARTESIAN_POINT ( 'NONE',  ( -1.750000000000000000, 0.000000000000000000, 3.000000000000000000 ) ) ;
#84 = DIRECTION ( 'NONE',  ( -1.000000000000000000, 0.000000000000000000, 0.000000000000000000 ) ) ;
#85 = CYLINDRICAL_SURFACE ( 'NONE', #162, 3.500000000000000000 ) ;
#86 = ADVANCED_FACE ( 'NONE', ( #203 ), #85, .T. ) ;
#87 = PERSON ( 'NEURÈENÝ', 'NEURÈENÝ', 'NEURÈENÝ', ('NEURÈENÝ'), ('NEURÈENÝ'), ('NEURÈENÝ') ) ;
#88 = CC_DESIGN_DATE_AND_TIME_ASSIGNMENT ( #158, #228, ( #172 ) ) ;
#89 = CARTESIAN_POINT ( 'NONE',  ( 1.750000000000000000, 2.143131898507868297E-16, 250.0000000000000000 ) ) ;
#90 = DIRECTION ( 'NONE',  ( 0.000000000000000000, 0.000000000000000000, 1.000000000000000000 ) ) ;
#91 = LINE ( 'NONE', #109, #36 ) ;
#92 = AXIS2_PLACEMENT_3D ( 'NONE', #120, #42, #198 ) ;
#93 = PRODUCT ( 'd96a', 'd96a', '', ( #14 ) ) ;
#94 = PERSON_AND_ORGANIZATION ( #87, #82 ) ;
#95 = CC_DESIGN_PERSON_AND_ORGANIZATION_ASSIGNMENT ( #231, #54, ( #118 ) ) ;
#96 = APPROVAL_STATUS ( 'not_yet_approved' ) ;
#97 = FACE_BOUND ( 'NONE', #236, .T. ) ;
#98 = APPROVAL_STATUS ( 'not_yet_approved' ) ;
#99 = VERTEX_POINT ( 'NONE', #32 ) ;
#100 = CALENDAR_DATE ( 2023, 13, 2 ) ;
#101 = EDGE_CURVE ( 'NONE', #61, #78, #116, .T. ) ;
#102 = VERTEX_POINT ( 'NONE', #65 ) ;
#103 = CC_DESIGN_PERSON_AND_ORGANIZATION_ASSIGNMENT ( #15, #12, ( #93 ) ) ;
#104 = DIRECTION ( 'NONE',  ( 0.000000000000000000, 0.000000000000000000, 1.000000000000000000 ) ) ;
#105 = DIRECTION ( 'NONE',  ( 0.000000000000000000, 0.000000000000000000, 1.000000000000000000 ) ) ;
#106 = CARTESIAN_POINT ( 'NONE',  ( 0.000000000000000000, 0.000000000000000000, 250.0000000000000000 ) ) ;
#107 = EDGE_CURVE ( 'NONE', #137, #217, #127, .T. ) ;
#108 = CYLINDRICAL_SURFACE ( 'NONE', #31, 1.750000000000000000 ) ;
#109 = CARTESIAN_POINT ( 'NONE',  ( 3.500000000000000000, 4.286263797015736595E-16, 3.000000000000000000 ) ) ;
#110 = AXIS2_PLACEMENT_3D ( 'NONE', #81, #43, #121 ) ;
#111 = AXIS2_PLACEMENT_3D ( 'NONE', #106, #150, #224 ) ;
#112 = DIRECTION ( 'NONE',  ( 0.000000000000000000, 0.000000000000000000, 1.000000000000000000 ) ) ;
#113 = CARTESIAN_POINT ( 'NONE',  ( 0.000000000000000000, 0.000000000000000000, 250.0000000000000000 ) ) ;
#114 = PERSON_AND_ORGANIZATION_ROLE ( 'creator' ) ;
#115 = ORIENTED_EDGE ( 'NONE', *, *, #147, .T. ) ;
#116 = CIRCLE ( 'NONE', #49, 1.750000000000000000 ) ;
#117 = CALENDAR_DATE ( 2023, 13, 2 ) ;
#118 = PRODUCT_DEFINITION_FORMATION_WITH_SPECIFIED_SOURCE ( 'LIBOVOLNÝ', '', #93, .NOT_KNOWN. ) ;
#119 = ORIENTED_EDGE ( 'NONE', *, *, #1, .F. ) ;
#120 = CARTESIAN_POINT ( 'NONE',  ( 0.000000000000000000, 0.000000000000000000, 250.0000000000000000 ) ) ;
#121 = DIRECTION ( 'NONE',  ( 1.000000000000000000, 0.000000000000000000, 0.000000000000000000 ) ) ;
#122 = ORIENTED_EDGE ( 'NONE', *, *, #138, .F. ) ;
#123 = DIRECTION ( 'NONE',  ( 0.000000000000000000, 0.000000000000000000, 1.000000000000000000 ) ) ;
#124 = DIRECTION ( 'NONE',  ( 0.000000000000000000, 0.000000000000000000, 1.000000000000000000 ) ) ;
#125 = CIRCLE ( 'NONE', #110, 1.750000000000000000 ) ;
#126 = CARTESIAN_POINT ( 'NONE',  ( 1.750000000000000000, 2.143131898507868297E-16, 250.0000000000000000 ) ) ;
#127 = CIRCLE ( 'NONE', #151, 3.500000000000000000 ) ;
#128 = EDGE_CURVE ( 'NONE', #78, #59, #9, .T. ) ;
#129 = CARTESIAN_POINT ( 'NONE',  ( -1.750000000000000000, 0.000000000000000000, 250.0000000000000000 ) ) ;
#130 = FACE_OUTER_BOUND ( 'NONE', #80, .T. ) ;
#131 = APPROVAL_STATUS ( 'not_yet_approved' ) ;
#132 = LOCAL_TIME ( 17, 23, 19.00000000000000000, #136 ) ;
#133 = PERSON_AND_ORGANIZATION ( #87, #82 ) ;
#134 = CALENDAR_DATE ( 2023, 13, 2 ) ;
#135 = CC_DESIGN_PERSON_AND_ORGANIZATION_ASSIGNMENT ( #94, #56, ( #41 ) ) ;
#136 = COORDINATED_UNIVERSAL_TIME_OFFSET ( 1, 0, .AHEAD. ) ;
#137 = VERTEX_POINT ( 'NONE', #30 ) ;
#138 = EDGE_CURVE ( 'NONE', #78, #61, #157, .T. ) ;
#139 = VECTOR ( 'NONE', #149, 1000.000000000000000 ) ;
#140 = FACE_OUTER_BOUND ( 'NONE', #165, .T. ) ;
#141 = ORIENTED_EDGE ( 'NONE', *, *, #146, .F. ) ;
#142 = ORIENTED_EDGE ( 'NONE', *, *, #72, .T. ) ;
#143 = CC_DESIGN_DATE_AND_TIME_ASSIGNMENT ( #177, #206, ( #41 ) ) ;
#144 = DIRECTION ( 'NONE',  ( -0.000000000000000000, -0.000000000000000000, -1.000000000000000000 ) ) ;
#145 = CARTESIAN_POINT ( 'NONE',  ( -1.750000000000000000, 0.000000000000000000, 250.0000000000000000 ) ) ;
#146 = EDGE_CURVE ( 'NONE', #102, #137, #91, .T. ) ;
#147 = EDGE_CURVE ( 'NONE', #61, #194, #5, .T. ) ;
#148 = LOCAL_TIME ( 17, 23, 19.00000000000000000, #11 ) ;
#149 = DIRECTION ( 'NONE',  ( -0.000000000000000000, -0.000000000000000000, -1.000000000000000000 ) ) ;
#150 = DIRECTION ( 'NONE',  ( 0.000000000000000000, 0.000000000000000000, 1.000000000000000000 ) ) ;
#151 = AXIS2_PLACEMENT_3D ( 'NONE', #201, #124, #227 ) ;
#152 = LOCAL_TIME ( 17, 23, 19.00000000000000000, #33 ) ;
#153 =( LENGTH_UNIT ( ) NAMED_UNIT ( * ) SI_UNIT ( .MILLI., .METRE. ) );
#154 = COORDINATED_UNIVERSAL_TIME_OFFSET ( 1, 0, .AHEAD. ) ;
#155 = DIRECTION ( 'NONE',  ( 1.000000000000000000, 0.000000000000000000, 0.000000000000000000 ) ) ;
#156 = CLOSED_SHELL ( 'NONE', ( #8, #226, #86, #48, #67, #168, #237 ) ) ;
#157 = CIRCLE ( 'NONE', #111, 1.750000000000000000 ) ;
#158 = DATE_AND_TIME ( #100, #195 ) ;
#159 = APPROVAL_ROLE ( '' ) ;
#160 = ORIENTED_EDGE ( 'NONE', *, *, #107, .F. ) ;
#161 = ORIENTED_EDGE ( 'NONE', *, *, #18, .T. ) ;
#162 = AXIS2_PLACEMENT_3D ( 'NONE', #170, #6, #187 ) ;
#163 = VECTOR ( 'NONE', #239, 1000.000000000000000 ) ;
#164 = EDGE_LOOP ( 'NONE', ( #19, #142 ) ) ;
#165 = EDGE_LOOP ( 'NONE', ( #180, #115, #45, #232 ) ) ;
#166 = CARTESIAN_POINT ( 'NONE',  ( 0.000000000000000000, 0.000000000000000000, 0.000000000000000000 ) ) ;
#167 = CARTESIAN_POINT ( 'NONE',  ( -3.500000000000000000, 0.000000000000000000, 0.000000000000000000 ) ) ;
#168 = ADVANCED_FACE ( 'NONE', ( #169 ), #108, .T. ) ;
#169 = FACE_OUTER_BOUND ( 'NONE', #178, .T. ) ;
#170 = CARTESIAN_POINT ( 'NONE',  ( 0.000000000000000000, 0.000000000000000000, 3.000000000000000000 ) ) ;
#171 = LINE ( 'NONE', #220, #139 ) ;
#172 = PRODUCT_DEFINITION ( 'NEZNÁMÝ', '', #118, #13 ) ;
#173 = APPROVAL_ROLE ( '' ) ;
#174 = CIRCLE ( 'NONE', #63, 3.500000000000000000 ) ;
#175 = ORIENTED_EDGE ( 'NONE', *, *, #101, .T. ) ;
#176 = CIRCLE ( 'NONE', #202, 3.500000000000000000 ) ;
#177 = DATE_AND_TIME ( #134, #148 ) ;
#178 = EDGE_LOOP ( 'NONE', ( #40, #122, #234, #161 ) ) ;
#179 = PERSON_AND_ORGANIZATION ( #87, #82 ) ;
#180 = ORIENTED_EDGE ( 'NONE', *, *, #101, .F. ) ;
#181 = DIRECTION ( 'NONE',  ( 1.000000000000000000, 0.000000000000000000, 0.000000000000000000 ) ) ;
#182 = DIRECTION ( 'NONE',  ( 0.000000000000000000, 0.000000000000000000, 1.000000000000000000 ) ) ;
#183 = DIRECTION ( 'NONE',  ( 1.000000000000000000, 0.000000000000000000, 0.000000000000000000 ) ) ;
#184 = CARTESIAN_POINT ( 'NONE',  ( 1.750000000000000000, 2.143131898507868297E-16, 3.000000000000000000 ) ) ;
#185 = CIRCLE ( 'NONE', #71, 3.500000000000000000 ) ;
#186 = APPROVAL_PERSON_ORGANIZATION ( #252, #27, #159 ) ;
#187 = DIRECTION ( 'NONE',  ( -1.000000000000000000, 0.000000000000000000, 0.000000000000000000 ) ) ;
#188 = CARTESIAN_POINT ( 'NONE',  ( 0.000000000000000000, 0.000000000000000000, 3.000000000000000000 ) ) ;
#189 = ADVANCED_BREP_SHAPE_REPRESENTATION ( 'd96a', ( #205, #50 ), #225 ) ;
#190 = DIRECTION ( 'NONE',  ( 0.000000000000000000, 0.000000000000000000, 1.000000000000000000 ) ) ;
#191 = SECURITY_CLASSIFICATION_LEVEL ( 'unclassified' ) ;
#192 = PRODUCT_RELATED_PRODUCT_CATEGORY ( 'detail', '', ( #93 ) ) ;
#193 = PERSON_AND_ORGANIZATION ( #87, #82 ) ;
#194 = VERTEX_POINT ( 'NONE', #184 ) ;
#195 = LOCAL_TIME ( 17, 23, 19.00000000000000000, #233 ) ;
#196 = DATE_AND_TIME ( #117, #132 ) ;
#197 = EDGE_LOOP ( 'NONE', ( #251, #16, #253, #212 ) ) ;
#198 = DIRECTION ( 'NONE',  ( -1.000000000000000000, 0.000000000000000000, 0.000000000000000000 ) ) ;
#199 = FACE_OUTER_BOUND ( 'NONE', #164, .T. ) ;
#200 = ORIENTED_EDGE ( 'NONE', *, *, #138, .T. ) ;
#201 = CARTESIAN_POINT ( 'NONE',  ( 0.000000000000000000, 0.000000000000000000, 0.000000000000000000 ) ) ;
#202 = AXIS2_PLACEMENT_3D ( 'NONE', #52, #190, #183 ) ;
#203 = FACE_OUTER_BOUND ( 'NONE', #57, .T. ) ;
#204 = DIRECTION ( 'NONE',  ( -0.000000000000000000, -0.000000000000000000, -1.000000000000000000 ) ) ;
#205 = MANIFOLD_SOLID_BREP ( 'Pøidat vysunutím3', #156 ) ;
#206 = DATE_TIME_ROLE ( 'classification_date' ) ;
#207 =( NAMED_UNIT ( * ) PLANE_ANGLE_UNIT ( ) SI_UNIT ( $, .RADIAN. ) );
#208 = UNCERTAINTY_MEASURE_WITH_UNIT (LENGTH_MEASURE( 1.000000000000000082E-05 ), #153, 'distance_accuracy_value', 'NONE');
#209 = AXIS2_PLACEMENT_3D ( 'NONE', #113, #47, #246 ) ;
#210 = APPLICATION_PROTOCOL_DEFINITION ( 'international standard', 'config_control_design', 1994, #37 ) ;
#211 = APPROVAL_DATE_TIME ( #77, #35 ) ;
#212 = ORIENTED_EDGE ( 'NONE', *, *, #229, .F. ) ;
#213 = EDGE_CURVE ( 'NONE', #99, #102, #176, .T. ) ;
#214 =( NAMED_UNIT ( * ) SI_UNIT ( $, .STERADIAN. ) SOLID_ANGLE_UNIT ( ) );
#215 = ORIENTED_EDGE ( 'NONE', *, *, #1, .T. ) ;
#216 = CYLINDRICAL_SURFACE ( 'NONE', #92, 1.750000000000000000 ) ;
#217 = VERTEX_POINT ( 'NONE', #167 ) ;
#218 = AXIS2_PLACEMENT_3D ( 'NONE', #20, #104, #181 ) ;
#219 = EDGE_LOOP ( 'NONE', ( #200, #175 ) ) ;
#220 = CARTESIAN_POINT ( 'NONE',  ( -3.500000000000000000, 0.000000000000000000, 3.000000000000000000 ) ) ;
#221 = CYLINDRICAL_SURFACE ( 'NONE', #68, 3.500000000000000000 ) ;
#222 = LOCAL_TIME ( 17, 23, 19.00000000000000000, #154 ) ;
#223 = PLANE ( 'NONE',  #209 ) ;
#224 = DIRECTION ( 'NONE',  ( 1.000000000000000000, 0.000000000000000000, 0.000000000000000000 ) ) ;
#225 =( GEOMETRIC_REPRESENTATION_CONTEXT ( 3 ) GLOBAL_UNCERTAINTY_ASSIGNED_CONTEXT ( ( #208 ) ) GLOBAL_UNIT_ASSIGNED_CONTEXT ( ( #153, #207, #214 ) ) REPRESENTATION_CONTEXT ( 'NONE', 'WORKASPACE' ) );
#226 = ADVANCED_FACE ( 'NONE', ( #240 ), #221, .T. ) ;
#227 = DIRECTION ( 'NONE',  ( 1.000000000000000000, 0.000000000000000000, 0.000000000000000000 ) ) ;
#228 = DATE_TIME_ROLE ( 'creation_date' ) ;
#229 = EDGE_CURVE ( 'NONE', #99, #217, #171, .T. ) ;
#230 = CALENDAR_DATE ( 2023, 13, 2 ) ;
#231 = PERSON_AND_ORGANIZATION ( #87, #82 ) ;
#232 = ORIENTED_EDGE ( 'NONE', *, *, #128, .F. ) ;
#233 = COORDINATED_UNIVERSAL_TIME_OFFSET ( 1, 0, .AHEAD. ) ;
#234 = ORIENTED_EDGE ( 'NONE', *, *, #128, .T. ) ;
#235 = DIRECTION ( 'NONE',  ( 1.000000000000000000, 0.000000000000000000, 0.000000000000000000 ) ) ;
#236 = EDGE_LOOP ( 'NONE', ( #255, #238 ) ) ;
#237 = ADVANCED_FACE ( 'NONE', ( #46 ), #223, .T. ) ;
#238 = ORIENTED_EDGE ( 'NONE', *, *, #29, .F. ) ;
#239 = DIRECTION ( 'NONE',  ( -0.000000000000000000, -0.000000000000000000, -1.000000000000000000 ) ) ;
#240 = FACE_OUTER_BOUND ( 'NONE', #197, .T. ) ;
#241 = CC_DESIGN_PERSON_AND_ORGANIZATION_ASSIGNMENT ( #133, #114, ( #172 ) ) ;
#242 = VECTOR ( 'NONE', #70, 1000.000000000000000 ) ;
#243 = CC_DESIGN_APPROVAL ( #44, ( #118 ) ) ;
#244 = DIRECTION ( 'NONE',  ( 1.000000000000000000, 0.000000000000000000, 0.000000000000000000 ) ) ;
#245 = PLANE ( 'NONE',  #66 ) ;
#246 = DIRECTION ( 'NONE',  ( 1.000000000000000000, 0.000000000000000000, -0.000000000000000000 ) ) ;
#247 = PERSON_AND_ORGANIZATION ( #87, #82 ) ;
#248 = DIRECTION ( 'NONE',  ( 0.000000000000000000, 0.000000000000000000, 1.000000000000000000 ) ) ;
#249 = CC_DESIGN_PERSON_AND_ORGANIZATION_ASSIGNMENT ( #179, #58, ( #118 ) ) ;
#250 = DATE_AND_TIME ( #34, #152 ) ;
#251 = ORIENTED_EDGE ( 'NONE', *, *, #72, .F. ) ;
#252 = PERSON_AND_ORGANIZATION ( #87, #82 ) ;
#253 = ORIENTED_EDGE ( 'NONE', *, *, #107, .T. ) ;
#254 = APPROVAL_DATE_TIME ( #196, #27 ) ;
#255 = ORIENTED_EDGE ( 'NONE', *, *, #18, .F. ) ;
ENDSEC;
END-ISO-10303-21;
