ISO-10303-21;
HEADER;
FILE_DESCRIPTION (( 'STEP AP203' ),
    '1' );
FILE_NAME ('abf5.STEP',
    '2023-02-13T14:22:47',
    ( '' ),
    ( '' ),
    'SwSTEP 2.0',
    'SolidWorks 2019',
    '' );
FILE_SCHEMA (( 'CONFIG_CONTROL_DESIGN' ));
ENDSEC;

DATA;
#1 = APPROVAL_STATUS ( 'not_yet_approved' ) ;
#2 = APPROVAL_ROLE ( '' ) ;
#3 = DIRECTION ( 'NONE',  ( -0.000000000000000000, -0.000000000000000000, -1.000000000000000000 ) ) ;
#4 = EDGE_CURVE ( 'NONE', #162, #238, #176, .T. ) ;
#5 = FACE_BOUND ( 'NONE', #249, .T. ) ;
#6 = PRODUCT_DEFINITION ( 'NEZNÁMÝ', '', #211, #106 ) ;
#7 = CARTESIAN_POINT ( 'NONE',  ( 0.000000000000000000, 0.000000000000000000, 5.000000000000000000 ) ) ;
#8 = AXIS2_PLACEMENT_3D ( 'NONE', #109, #52, #229 ) ;
#9 = CARTESIAN_POINT ( 'NONE',  ( 0.000000000000000000, 0.000000000000000000, 5.000000000000000000 ) ) ;
#10 = ORIENTED_EDGE ( 'NONE', *, *, #189, .F. ) ;
#11 = DIRECTION ( 'NONE',  ( 0.000000000000000000, 0.000000000000000000, 1.000000000000000000 ) ) ;
#12 = DIRECTION ( 'NONE',  ( 1.000000000000000000, 0.000000000000000000, 0.000000000000000000 ) ) ;
#13 = PRODUCT_RELATED_PRODUCT_CATEGORY ( 'detail', '', ( #225 ) ) ;
#14 = VECTOR ( 'NONE', #102, 1000.000000000000000 ) ;
#15 = CARTESIAN_POINT ( 'NONE',  ( 0.000000000000000000, 0.000000000000000000, 0.000000000000000000 ) ) ;
#16 = CYLINDRICAL_SURFACE ( 'NONE', #255, 4.000000000000000000 ) ;
#17 = PERSON_AND_ORGANIZATION_ROLE ( 'creator' ) ;
#18 = DATE_TIME_ROLE ( 'classification_date' ) ;
#19 = DATE_AND_TIME ( #195, #48 ) ;
#20 = CIRCLE ( 'NONE', #163, 4.000000000000000000 ) ;
#21 = ADVANCED_FACE ( 'NONE', ( #205 ), #223, .T. ) ;
#22 = PERSON_AND_ORGANIZATION ( #148, #178 ) ;
#23 = CALENDAR_DATE ( 2023, 13, 2 ) ;
#24 = CIRCLE ( 'NONE', #174, 4.000000000000000000 ) ;
#25 = ORIENTED_EDGE ( 'NONE', *, *, #189, .T. ) ;
#26 = DIRECTION ( 'NONE',  ( -1.000000000000000000, 0.000000000000000000, 0.000000000000000000 ) ) ;
#27 = ORIENTED_EDGE ( 'NONE', *, *, #215, .T. ) ;
#28 = DIRECTION ( 'NONE',  ( 1.000000000000000000, 0.000000000000000000, -0.000000000000000000 ) ) ;
#29 = CARTESIAN_POINT ( 'NONE',  ( 0.000000000000000000, 0.000000000000000000, 5.000000000000000000 ) ) ;
#30 = DIRECTION ( 'NONE',  ( -0.000000000000000000, -0.000000000000000000, -1.000000000000000000 ) ) ;
#31 = APPLICATION_PROTOCOL_DEFINITION ( 'international standard', 'config_control_design', 1994, #209 ) ;
#32 = FACE_OUTER_BOUND ( 'NONE', #107, .T. ) ;
#33 =( NAMED_UNIT ( * ) SI_UNIT ( $, .STERADIAN. ) SOLID_ANGLE_UNIT ( ) );
#34 = AXIS2_PLACEMENT_3D ( 'NONE', #207, #170, #252 ) ;
#35 = DIRECTION ( 'NONE',  ( 1.000000000000000000, 0.000000000000000000, 0.000000000000000000 ) ) ;
#36 = MECHANICAL_CONTEXT ( 'NONE', #209, 'mechanical' ) ;
#37 = ORIENTED_EDGE ( 'NONE', *, *, #62, .T. ) ;
#38 = APPROVAL_DATE_TIME ( #116, #81 ) ;
#39 = ADVANCED_FACE ( 'NONE', ( #64 ), #228, .T. ) ;
#40 = DATE_TIME_ROLE ( 'creation_date' ) ;
#41 = PERSON_AND_ORGANIZATION_ROLE ( 'design_owner' ) ;
#42 = MANIFOLD_SOLID_BREP ( 'Pøidat vysunutím3', #200 ) ;
#43 = ORIENTED_EDGE ( 'NONE', *, *, #62, .F. ) ;
#44 = LINE ( 'NONE', #199, #14 ) ;
#45 = ORIENTED_EDGE ( 'NONE', *, *, #160, .F. ) ;
#46 = AXIS2_PLACEMENT_3D ( 'NONE', #161, #198, #26 ) ;
#47 = FACE_OUTER_BOUND ( 'NONE', #173, .T. ) ;
#48 = LOCAL_TIME ( 15, 22, 47.00000000000000000, #159 ) ;
#49 = UNCERTAINTY_MEASURE_WITH_UNIT (LENGTH_MEASURE( 1.000000000000000082E-05 ), #214, 'distance_accuracy_value', 'NONE');
#50 = VERTEX_POINT ( 'NONE', #80 ) ;
#51 = APPROVAL ( #177, 'NEURÈENÝ' ) ;
#52 = DIRECTION ( 'NONE',  ( 0.000000000000000000, 0.000000000000000000, 1.000000000000000000 ) ) ;
#53 = CARTESIAN_POINT ( 'NONE',  ( 4.000000000000000000, 4.898587196589412829E-16, 5.000000000000000000 ) ) ;
#54 = CC_DESIGN_DATE_AND_TIME_ASSIGNMENT ( #135, #18, ( #219 ) ) ;
#55 = APPROVAL_DATE_TIME ( #19, #169 ) ;
#56 = CALENDAR_DATE ( 2023, 13, 2 ) ;
#57 = ORIENTED_EDGE ( 'NONE', *, *, #142, .T. ) ;
#58 = DATE_AND_TIME ( #23, #113 ) ;
#59 = COORDINATED_UNIVERSAL_TIME_OFFSET ( 1, 0, .AHEAD. ) ;
#60 = DIRECTION ( 'NONE',  ( 0.000000000000000000, 0.000000000000000000, 1.000000000000000000 ) ) ;
#61 = ORIENTED_EDGE ( 'NONE', *, *, #145, .T. ) ;
#62 = EDGE_CURVE ( 'NONE', #250, #123, #44, .T. ) ;
#63 = CARTESIAN_POINT ( 'NONE',  ( 7.000000000000000000, 8.572527594031473190E-16, 0.000000000000000000 ) ) ;
#64 = FACE_OUTER_BOUND ( 'NONE', #248, .T. ) ;
#65 = VERTEX_POINT ( 'NONE', #63 ) ;
#66 = APPROVAL_PERSON_ORGANIZATION ( #22, #51, #2 ) ;
#67 = ADVANCED_FACE ( 'NONE', ( #5, #47 ), #203, .T. ) ;
#68 = FACE_OUTER_BOUND ( 'NONE', #125, .T. ) ;
#69 = DIRECTION ( 'NONE',  ( 0.000000000000000000, 0.000000000000000000, 1.000000000000000000 ) ) ;
#70 = DIRECTION ( 'NONE',  ( 0.000000000000000000, 0.000000000000000000, 1.000000000000000000 ) ) ;
#71 = DIRECTION ( 'NONE',  ( 1.000000000000000000, 0.000000000000000000, 0.000000000000000000 ) ) ;
#72 = PERSON_AND_ORGANIZATION_ROLE ( 'classification_officer' ) ;
#73 = ORIENTED_EDGE ( 'NONE', *, *, #112, .T. ) ;
#74 = CC_DESIGN_PERSON_AND_ORGANIZATION_ASSIGNMENT ( #221, #72, ( #219 ) ) ;
#75 = PERSON_AND_ORGANIZATION ( #148, #178 ) ;
#76 = CIRCLE ( 'NONE', #182, 7.000000000000000000 ) ;
#77 = DIRECTION ( 'NONE',  ( 1.000000000000000000, 0.000000000000000000, 0.000000000000000000 ) ) ;
#78 = ORIENTED_EDGE ( 'NONE', *, *, #112, .F. ) ;
#79 = CC_DESIGN_PERSON_AND_ORGANIZATION_ASSIGNMENT ( #237, #98, ( #211 ) ) ;
#80 = CARTESIAN_POINT ( 'NONE',  ( -4.000000000000000000, 0.000000000000000000, 250.0000000000000000 ) ) ;
#81 = APPROVAL ( #196, 'NEURÈENÝ' ) ;
#82 = ORIENTED_EDGE ( 'NONE', *, *, #4, .F. ) ;
#83 = ORIENTED_EDGE ( 'NONE', *, *, #192, .T. ) ;
#84 = CIRCLE ( 'NONE', #244, 7.000000000000000000 ) ;
#85 = DIRECTION ( 'NONE',  ( -0.000000000000000000, -0.000000000000000000, -1.000000000000000000 ) ) ;
#86 = LOCAL_TIME ( 15, 22, 47.00000000000000000, #59 ) ;
#87 = CARTESIAN_POINT ( 'NONE',  ( 0.000000000000000000, 0.000000000000000000, 0.000000000000000000 ) ) ;
#88 = LINE ( 'NONE', #110, #208 ) ;
#89 = DIRECTION ( 'NONE',  ( 0.000000000000000000, 0.000000000000000000, 1.000000000000000000 ) ) ;
#90 = COORDINATED_UNIVERSAL_TIME_OFFSET ( 1, 0, .AHEAD. ) ;
#91 = AXIS2_PLACEMENT_3D ( 'NONE', #29, #222, #164 ) ;
#92 = APPLICATION_PROTOCOL_DEFINITION ( 'international standard', 'config_control_design', 1994, #224 ) ;
#93 = ORIENTED_EDGE ( 'NONE', *, *, #134, .F. ) ;
#94 = APPROVAL_PERSON_ORGANIZATION ( #156, #169, #119 ) ;
#95 = CALENDAR_DATE ( 2023, 13, 2 ) ;
#96 = DATE_AND_TIME ( #56, #137 ) ;
#97 = CIRCLE ( 'NONE', #194, 7.000000000000000000 ) ;
#98 = PERSON_AND_ORGANIZATION_ROLE ( 'design_supplier' ) ;
#99 = CARTESIAN_POINT ( 'NONE',  ( 0.000000000000000000, 0.000000000000000000, 0.000000000000000000 ) ) ;
#100 = EDGE_LOOP ( 'NONE', ( #61, #25 ) ) ;
#101 = PRODUCT_DEFINITION_SHAPE ( 'NONE', 'NONE',  #6 ) ;
#102 = DIRECTION ( 'NONE',  ( -0.000000000000000000, -0.000000000000000000, -1.000000000000000000 ) ) ;
#103 = CC_DESIGN_APPROVAL ( #169, ( #219 ) ) ;
#104 = ADVANCED_BREP_SHAPE_REPRESENTATION ( 'abf5', ( #42, #158 ), #247 ) ;
#105 = CARTESIAN_POINT ( 'NONE',  ( 0.000000000000000000, 0.000000000000000000, 5.000000000000000000 ) ) ;
#106 = DESIGN_CONTEXT ( 'detailed design', #224, 'design' ) ;
#107 = EDGE_LOOP ( 'NONE', ( #93, #240 ) ) ;
#108 = LINE ( 'NONE', #213, #150 ) ;
#109 = CARTESIAN_POINT ( 'NONE',  ( 0.000000000000000000, 0.000000000000000000, 0.000000000000000000 ) ) ;
#110 = CARTESIAN_POINT ( 'NONE',  ( -4.000000000000000000, 0.000000000000000000, 250.0000000000000000 ) ) ;
#111 = DIRECTION ( 'NONE',  ( -0.000000000000000000, -0.000000000000000000, -1.000000000000000000 ) ) ;
#112 = EDGE_CURVE ( 'NONE', #180, #162, #183, .T. ) ;
#113 = LOCAL_TIME ( 15, 22, 47.00000000000000000, #90 ) ;
#114 = PERSON_AND_ORGANIZATION_ROLE ( 'creator' ) ;
#115 = ORIENTED_EDGE ( 'NONE', *, *, #192, .F. ) ;
#116 = DATE_AND_TIME ( #95, #242 ) ;
#117 = AXIS2_PLACEMENT_3D ( 'NONE', #253, #234, #71 ) ;
#118 = ORIENTED_EDGE ( 'NONE', *, *, #4, .T. ) ;
#119 = APPROVAL_ROLE ( '' ) ;
#120 = EDGE_CURVE ( 'NONE', #246, #250, #84, .T. ) ;
#121 = FACE_OUTER_BOUND ( 'NONE', #243, .T. ) ;
#122 = DIRECTION ( 'NONE',  ( -1.000000000000000000, 0.000000000000000000, 0.000000000000000000 ) ) ;
#123 = VERTEX_POINT ( 'NONE', #184 ) ;
#124 = DIRECTION ( 'NONE',  ( 1.000000000000000000, 0.000000000000000000, 0.000000000000000000 ) ) ;
#125 = EDGE_LOOP ( 'NONE', ( #217, #165, #57, #43 ) ) ;
#126 = CIRCLE ( 'NONE', #188, 7.000000000000000000 ) ;
#127 = ADVANCED_FACE ( 'NONE', ( #121 ), #226, .T. ) ;
#128 = DIRECTION ( 'NONE',  ( 1.000000000000000000, 0.000000000000000000, 0.000000000000000000 ) ) ;
#129 = DIRECTION ( 'NONE',  ( 1.000000000000000000, 0.000000000000000000, 0.000000000000000000 ) ) ;
#130 = CARTESIAN_POINT ( 'NONE',  ( 0.000000000000000000, 0.000000000000000000, 5.000000000000000000 ) ) ;
#131 = DIRECTION ( 'NONE',  ( 0.000000000000000000, 0.000000000000000000, 1.000000000000000000 ) ) ;
#132 = CC_DESIGN_DATE_AND_TIME_ASSIGNMENT ( #96, #40, ( #6 ) ) ;
#133 = SHAPE_DEFINITION_REPRESENTATION ( #101, #104 ) ;
#134 = EDGE_CURVE ( 'NONE', #123, #65, #126, .T. ) ;
#135 = DATE_AND_TIME ( #175, #86 ) ;
#136 = ADVANCED_FACE ( 'NONE', ( #68 ), #167, .T. ) ;
#137 = LOCAL_TIME ( 15, 22, 47.00000000000000000, #172 ) ;
#138 = DIRECTION ( 'NONE',  ( 0.000000000000000000, 0.000000000000000000, 1.000000000000000000 ) ) ;
#139 = CC_DESIGN_SECURITY_CLASSIFICATION ( #219, ( #211 ) ) ;
#140 = ORIENTED_EDGE ( 'NONE', *, *, #160, .T. ) ;
#141 = CARTESIAN_POINT ( 'NONE',  ( 4.000000000000000000, 4.898587196589412829E-16, 250.0000000000000000 ) ) ;
#142 = EDGE_CURVE ( 'NONE', #65, #123, #97, .T. ) ;
#143 = ORIENTED_EDGE ( 'NONE', *, *, #120, .T. ) ;
#144 = CARTESIAN_POINT ( 'NONE',  ( 0.000000000000000000, 0.000000000000000000, 250.0000000000000000 ) ) ;
#145 = EDGE_CURVE ( 'NONE', #50, #180, #24, .T. ) ;
#146 = CC_DESIGN_PERSON_AND_ORGANIZATION_ASSIGNMENT ( #75, #17, ( #211 ) ) ;
#147 = CARTESIAN_POINT ( 'NONE',  ( -7.000000000000000000, 0.000000000000000000, 5.000000000000000000 ) ) ;
#148 = PERSON ( 'NEURÈENÝ', 'NEURÈENÝ', 'NEURÈENÝ', ('NEURÈENÝ'), ('NEURÈENÝ'), ('NEURÈENÝ') ) ;
#149 = DIRECTION ( 'NONE',  ( 1.000000000000000000, 0.000000000000000000, 0.000000000000000000 ) ) ;
#150 = VECTOR ( 'NONE', #111, 1000.000000000000000 ) ;
#151 = CARTESIAN_POINT ( 'NONE',  ( 0.000000000000000000, 0.000000000000000000, 250.0000000000000000 ) ) ;
#152 = CARTESIAN_POINT ( 'NONE',  ( 7.000000000000000000, 8.572527594031473190E-16, 5.000000000000000000 ) ) ;
#153 = AXIS2_PLACEMENT_3D ( 'NONE', #144, #138, #28 ) ;
#154 = EDGE_LOOP ( 'NONE', ( #10, #73, #118, #45 ) ) ;
#155 = APPROVAL_PERSON_ORGANIZATION ( #218, #81, #157 ) ;
#156 = PERSON_AND_ORGANIZATION ( #148, #178 ) ;
#157 = APPROVAL_ROLE ( '' ) ;
#158 = AXIS2_PLACEMENT_3D ( 'NONE', #87, #69, #149 ) ;
#159 = COORDINATED_UNIVERSAL_TIME_OFFSET ( 1, 0, .AHEAD. ) ;
#160 = EDGE_CURVE ( 'NONE', #50, #238, #88, .T. ) ;
#161 = CARTESIAN_POINT ( 'NONE',  ( 0.000000000000000000, 0.000000000000000000, 250.0000000000000000 ) ) ;
#162 = VERTEX_POINT ( 'NONE', #53 ) ;
#163 = AXIS2_PLACEMENT_3D ( 'NONE', #151, #131, #129 ) ;
#164 = DIRECTION ( 'NONE',  ( 1.000000000000000000, 0.000000000000000000, -0.000000000000000000 ) ) ;
#165 = ORIENTED_EDGE ( 'NONE', *, *, #216, .T. ) ;
#166 = ORIENTED_EDGE ( 'NONE', *, *, #134, .T. ) ;
#167 = CYLINDRICAL_SURFACE ( 'NONE', #34, 7.000000000000000000 ) ;
#168 = PLANE ( 'NONE',  #8 ) ;
#169 = APPROVAL ( #1, 'NEURÈENÝ' ) ;
#170 = DIRECTION ( 'NONE',  ( -0.000000000000000000, -0.000000000000000000, -1.000000000000000000 ) ) ;
#171 = CARTESIAN_POINT ( 'NONE',  ( 4.000000000000000000, 4.898587196589412829E-16, 250.0000000000000000 ) ) ;
#172 = COORDINATED_UNIVERSAL_TIME_OFFSET ( 1, 0, .AHEAD. ) ;
#173 = EDGE_LOOP ( 'NONE', ( #27, #143 ) ) ;
#174 = AXIS2_PLACEMENT_3D ( 'NONE', #190, #70, #186 ) ;
#175 = CALENDAR_DATE ( 2023, 13, 2 ) ;
#176 = CIRCLE ( 'NONE', #206, 4.000000000000000000 ) ;
#177 = APPROVAL_STATUS ( 'not_yet_approved' ) ;
#178 = ORGANIZATION ( 'NEURÈENÝ', 'NEURÈENÝ', '' ) ;
#179 = CC_DESIGN_PERSON_AND_ORGANIZATION_ASSIGNMENT ( #236, #114, ( #6 ) ) ;
#180 = VERTEX_POINT ( 'NONE', #171 ) ;
#181 = DIRECTION ( 'NONE',  ( 0.000000000000000000, 0.000000000000000000, 1.000000000000000000 ) ) ;
#182 = AXIS2_PLACEMENT_3D ( 'NONE', #130, #11, #128 ) ;
#183 = LINE ( 'NONE', #141, #185 ) ;
#184 = CARTESIAN_POINT ( 'NONE',  ( -7.000000000000000000, 0.000000000000000000, 0.000000000000000000 ) ) ;
#185 = VECTOR ( 'NONE', #3, 1000.000000000000000 ) ;
#186 = DIRECTION ( 'NONE',  ( 1.000000000000000000, 0.000000000000000000, 0.000000000000000000 ) ) ;
#187 = DIRECTION ( 'NONE',  ( 0.000000000000000000, 0.000000000000000000, 1.000000000000000000 ) ) ;
#188 = AXIS2_PLACEMENT_3D ( 'NONE', #99, #89, #35 ) ;
#189 = EDGE_CURVE ( 'NONE', #180, #50, #20, .T. ) ;
#190 = CARTESIAN_POINT ( 'NONE',  ( 0.000000000000000000, 0.000000000000000000, 250.0000000000000000 ) ) ;
#191 = CC_DESIGN_APPROVAL ( #81, ( #6 ) ) ;
#192 = EDGE_CURVE ( 'NONE', #238, #162, #231, .T. ) ;
#193 = SECURITY_CLASSIFICATION_LEVEL ( 'unclassified' ) ;
#194 = AXIS2_PLACEMENT_3D ( 'NONE', #15, #187, #12 ) ;
#195 = CALENDAR_DATE ( 2023, 13, 2 ) ;
#196 = APPROVAL_STATUS ( 'not_yet_approved' ) ;
#197 = ORIENTED_EDGE ( 'NONE', *, *, #145, .F. ) ;
#198 = DIRECTION ( 'NONE',  ( -0.000000000000000000, -0.000000000000000000, -1.000000000000000000 ) ) ;
#199 = CARTESIAN_POINT ( 'NONE',  ( -7.000000000000000000, 0.000000000000000000, 5.000000000000000000 ) ) ;
#200 = CLOSED_SHELL ( 'NONE', ( #245, #136, #39, #67, #204, #127, #21 ) ) ;
#201 = ORIENTED_EDGE ( 'NONE', *, *, #215, .F. ) ;
#202 = CC_DESIGN_APPROVAL ( #51, ( #211 ) ) ;
#203 = PLANE ( 'NONE',  #91 ) ;
#204 = ADVANCED_FACE ( 'NONE', ( #32 ), #168, .F. ) ;
#205 = FACE_OUTER_BOUND ( 'NONE', #100, .T. ) ;
#206 = AXIS2_PLACEMENT_3D ( 'NONE', #105, #181, #124 ) ;
#207 = CARTESIAN_POINT ( 'NONE',  ( 0.000000000000000000, 0.000000000000000000, 5.000000000000000000 ) ) ;
#208 = VECTOR ( 'NONE', #232, 1000.000000000000000 ) ;
#209 = APPLICATION_CONTEXT ( 'configuration controlled 3d designs of mechanical parts and assemblies' ) ;
#210 =( NAMED_UNIT ( * ) PLANE_ANGLE_UNIT ( ) SI_UNIT ( $, .RADIAN. ) );
#211 = PRODUCT_DEFINITION_FORMATION_WITH_SPECIFIED_SOURCE ( 'LIBOVOLNÝ', '', #225, .NOT_KNOWN. ) ;
#212 = DIRECTION ( 'NONE',  ( -1.000000000000000000, 0.000000000000000000, 0.000000000000000000 ) ) ;
#213 = CARTESIAN_POINT ( 'NONE',  ( 7.000000000000000000, 8.572527594031473190E-16, 5.000000000000000000 ) ) ;
#214 =( LENGTH_UNIT ( ) NAMED_UNIT ( * ) SI_UNIT ( .MILLI., .METRE. ) );
#215 = EDGE_CURVE ( 'NONE', #250, #246, #76, .T. ) ;
#216 = EDGE_CURVE ( 'NONE', #246, #65, #108, .T. ) ;
#217 = ORIENTED_EDGE ( 'NONE', *, *, #120, .F. ) ;
#218 = PERSON_AND_ORGANIZATION ( #148, #178 ) ;
#219 = SECURITY_CLASSIFICATION ( '', '', #193 ) ;
#220 = APPROVAL_DATE_TIME ( #58, #51 ) ;
#221 = PERSON_AND_ORGANIZATION ( #148, #178 ) ;
#222 = DIRECTION ( 'NONE',  ( 0.000000000000000000, 0.000000000000000000, 1.000000000000000000 ) ) ;
#223 = PLANE ( 'NONE',  #153 ) ;
#224 = APPLICATION_CONTEXT ( 'configuration controlled 3d designs of mechanical parts and assemblies' ) ;
#225 = PRODUCT ( 'abf5', 'abf5', '', ( #36 ) ) ;
#226 = CYLINDRICAL_SURFACE ( 'NONE', #46, 4.000000000000000000 ) ;
#227 = ORIENTED_EDGE ( 'NONE', *, *, #216, .F. ) ;
#228 = CYLINDRICAL_SURFACE ( 'NONE', #241, 7.000000000000000000 ) ;
#229 = DIRECTION ( 'NONE',  ( 1.000000000000000000, 0.000000000000000000, -0.000000000000000000 ) ) ;
#230 = CARTESIAN_POINT ( 'NONE',  ( 0.000000000000000000, 0.000000000000000000, 250.0000000000000000 ) ) ;
#231 = CIRCLE ( 'NONE', #117, 4.000000000000000000 ) ;
#232 = DIRECTION ( 'NONE',  ( -0.000000000000000000, -0.000000000000000000, -1.000000000000000000 ) ) ;
#233 = CC_DESIGN_PERSON_AND_ORGANIZATION_ASSIGNMENT ( #239, #41, ( #225 ) ) ;
#234 = DIRECTION ( 'NONE',  ( 0.000000000000000000, 0.000000000000000000, 1.000000000000000000 ) ) ;
#235 = CARTESIAN_POINT ( 'NONE',  ( -4.000000000000000000, 0.000000000000000000, 5.000000000000000000 ) ) ;
#236 = PERSON_AND_ORGANIZATION ( #148, #178 ) ;
#237 = PERSON_AND_ORGANIZATION ( #148, #178 ) ;
#238 = VERTEX_POINT ( 'NONE', #235 ) ;
#239 = PERSON_AND_ORGANIZATION ( #148, #178 ) ;
#240 = ORIENTED_EDGE ( 'NONE', *, *, #142, .F. ) ;
#241 = AXIS2_PLACEMENT_3D ( 'NONE', #7, #30, #122 ) ;
#242 = LOCAL_TIME ( 15, 22, 47.00000000000000000, #254 ) ;
#243 = EDGE_LOOP ( 'NONE', ( #78, #197, #140, #83 ) ) ;
#244 = AXIS2_PLACEMENT_3D ( 'NONE', #9, #60, #77 ) ;
#245 = ADVANCED_FACE ( 'NONE', ( #251 ), #16, .T. ) ;
#246 = VERTEX_POINT ( 'NONE', #152 ) ;
#247 =( GEOMETRIC_REPRESENTATION_CONTEXT ( 3 ) GLOBAL_UNCERTAINTY_ASSIGNED_CONTEXT ( ( #49 ) ) GLOBAL_UNIT_ASSIGNED_CONTEXT ( ( #214, #210, #33 ) ) REPRESENTATION_CONTEXT ( 'NONE', 'WORKASPACE' ) );
#248 = EDGE_LOOP ( 'NONE', ( #227, #201, #37, #166 ) ) ;
#249 = EDGE_LOOP ( 'NONE', ( #115, #82 ) ) ;
#250 = VERTEX_POINT ( 'NONE', #147 ) ;
#251 = FACE_OUTER_BOUND ( 'NONE', #154, .T. ) ;
#252 = DIRECTION ( 'NONE',  ( -1.000000000000000000, 0.000000000000000000, 0.000000000000000000 ) ) ;
#253 = CARTESIAN_POINT ( 'NONE',  ( 0.000000000000000000, 0.000000000000000000, 5.000000000000000000 ) ) ;
#254 = COORDINATED_UNIVERSAL_TIME_OFFSET ( 1, 0, .AHEAD. ) ;
#255 = AXIS2_PLACEMENT_3D ( 'NONE', #230, #85, #212 ) ;
ENDSEC;
END-ISO-10303-21;
