ISO-10303-21;
HEADER;
FILE_DESCRIPTION (( 'STEP AP203' ),
    '1' );
FILE_NAME ('e0fa.STEP',
    '2023-02-13T11:38:16',
    ( '' ),
    ( '' ),
    'SwSTEP 2.0',
    'SolidWorks 2019',
    '' );
FILE_SCHEMA (( 'CONFIG_CONTROL_DESIGN' ));
ENDSEC;

DATA;
#1 = CYLINDRICAL_SURFACE ( 'NONE', #122, 9.000000000000000000 ) ;
#2 = CARTESIAN_POINT ( 'NONE',  ( 0.000000000000000000, 0.000000000000000000, 7.000000000000000000 ) ) ;
#3 = APPLICATION_CONTEXT ( 'configuration controlled 3d designs of mechanical parts and assemblies' ) ;
#4 = CARTESIAN_POINT ( 'NONE',  ( 6.250000000000000000, 7.654042494670957606E-16, 160.0000000000000000 ) ) ;
#5 = DIRECTION ( 'NONE',  ( 0.000000000000000000, 0.000000000000000000, 1.000000000000000000 ) ) ;
#6 = CARTESIAN_POINT ( 'NONE',  ( 0.000000000000000000, 0.000000000000000000, 160.0000000000000000 ) ) ;
#7 = DIRECTION ( 'NONE',  ( 1.000000000000000000, 0.000000000000000000, 0.000000000000000000 ) ) ;
#8 = EDGE_LOOP ( 'NONE', ( #91, #47, #102, #185 ) ) ;
#9 = ORIENTED_EDGE ( 'NONE', *, *, #144, .T. ) ;
#10 = ORIENTED_EDGE ( 'NONE', *, *, #190, .T. ) ;
#11 = PERSON_AND_ORGANIZATION ( #78, #24 ) ;
#12 = DATE_AND_TIME ( #68, #192 ) ;
#13 = PERSON_AND_ORGANIZATION ( #78, #24 ) ;
#14 = CC_DESIGN_APPROVAL ( #227, ( #203 ) ) ;
#15 = CC_DESIGN_PERSON_AND_ORGANIZATION_ASSIGNMENT ( #13, #187, ( #254 ) ) ;
#16 = ORIENTED_EDGE ( 'NONE', *, *, #31, .F. ) ;
#17 = DIRECTION ( 'NONE',  ( 0.000000000000000000, 0.000000000000000000, 1.000000000000000000 ) ) ;
#18 = VECTOR ( 'NONE', #26, 1000.000000000000000 ) ;
#19 = DIRECTION ( 'NONE',  ( -0.000000000000000000, -0.000000000000000000, -1.000000000000000000 ) ) ;
#20 = DIRECTION ( 'NONE',  ( -1.000000000000000000, 0.000000000000000000, 0.000000000000000000 ) ) ;
#21 = CC_DESIGN_DATE_AND_TIME_ASSIGNMENT ( #245, #29, ( #203 ) ) ;
#22 = CARTESIAN_POINT ( 'NONE',  ( 0.000000000000000000, 0.000000000000000000, 0.000000000000000000 ) ) ;
#23 = CARTESIAN_POINT ( 'NONE',  ( -6.250000000000000000, 0.000000000000000000, 160.0000000000000000 ) ) ;
#24 = ORGANIZATION ( 'NEURÈENÝ', 'NEURÈENÝ', '' ) ;
#25 = CARTESIAN_POINT ( 'NONE',  ( 9.000000000000000000, 1.102182119232617714E-15, 0.000000000000000000 ) ) ;
#26 = DIRECTION ( 'NONE',  ( -0.000000000000000000, -0.000000000000000000, -1.000000000000000000 ) ) ;
#27 = VERTEX_POINT ( 'NONE', #253 ) ;
#28 = APPROVAL ( #126, 'NEURÈENÝ' ) ;
#29 = DATE_TIME_ROLE ( 'creation_date' ) ;
#30 = MECHANICAL_CONTEXT ( 'NONE', #220, 'mechanical' ) ;
#31 = EDGE_CURVE ( 'NONE', #171, #27, #60, .T. ) ;
#32 = ORIENTED_EDGE ( 'NONE', *, *, #31, .T. ) ;
#33 = AXIS2_PLACEMENT_3D ( 'NONE', #2, #150, #131 ) ;
#34 = CARTESIAN_POINT ( 'NONE',  ( 0.000000000000000000, 0.000000000000000000, 160.0000000000000000 ) ) ;
#35 = ADVANCED_BREP_SHAPE_REPRESENTATION ( 'e0fa', ( #70, #58 ), #120 ) ;
#36 = DIRECTION ( 'NONE',  ( 1.000000000000000000, 0.000000000000000000, 0.000000000000000000 ) ) ;
#37 = ADVANCED_FACE ( 'NONE', ( #174 ), #255, .T. ) ;
#38 = AXIS2_PLACEMENT_3D ( 'NONE', #74, #212, #36 ) ;
#39 = FACE_OUTER_BOUND ( 'NONE', #82, .T. ) ;
#40 = EDGE_CURVE ( 'NONE', #64, #218, #240, .T. ) ;
#41 = CARTESIAN_POINT ( 'NONE',  ( 0.000000000000000000, 0.000000000000000000, 7.000000000000000000 ) ) ;
#42 = CARTESIAN_POINT ( 'NONE',  ( -6.250000000000000000, 0.000000000000000000, 160.0000000000000000 ) ) ;
#43 = CARTESIAN_POINT ( 'NONE',  ( 0.000000000000000000, 0.000000000000000000, 0.000000000000000000 ) ) ;
#44 = ORIENTED_EDGE ( 'NONE', *, *, #92, .T. ) ;
#45 = ORIENTED_EDGE ( 'NONE', *, *, #252, .T. ) ;
#46 = FACE_OUTER_BOUND ( 'NONE', #160, .T. ) ;
#47 = ORIENTED_EDGE ( 'NONE', *, *, #92, .F. ) ;
#48 = DATE_AND_TIME ( #103, #169 ) ;
#49 = APPROVAL_DATE_TIME ( #48, #227 ) ;
#50 = AXIS2_PLACEMENT_3D ( 'NONE', #22, #177, #62 ) ;
#51 = PERSON_AND_ORGANIZATION ( #78, #24 ) ;
#52 = DIRECTION ( 'NONE',  ( 1.000000000000000000, 0.000000000000000000, 0.000000000000000000 ) ) ;
#53 = APPROVAL_PERSON_ORGANIZATION ( #162, #227, #251 ) ;
#54 = VECTOR ( 'NONE', #215, 1000.000000000000000 ) ;
#55 = DIRECTION ( 'NONE',  ( -0.000000000000000000, -0.000000000000000000, -1.000000000000000000 ) ) ;
#56 = CARTESIAN_POINT ( 'NONE',  ( 6.250000000000000000, 7.654042494670957606E-16, 7.000000000000000000 ) ) ;
#57 = CIRCLE ( 'NONE', #205, 6.250000000000000000 ) ;
#58 = AXIS2_PLACEMENT_3D ( 'NONE', #209, #168, #67 ) ;
#59 = CARTESIAN_POINT ( 'NONE',  ( 9.000000000000000000, 1.102182119232617714E-15, 7.000000000000000000 ) ) ;
#60 = CIRCLE ( 'NONE', #207, 6.250000000000000000 ) ;
#61 = ORIENTED_EDGE ( 'NONE', *, *, #243, .F. ) ;
#62 = DIRECTION ( 'NONE',  ( 1.000000000000000000, 0.000000000000000000, 0.000000000000000000 ) ) ;
#63 = DESIGN_CONTEXT ( 'detailed design', #3, 'design' ) ;
#64 = VERTEX_POINT ( 'NONE', #71 ) ;
#65 = DIRECTION ( 'NONE',  ( 1.000000000000000000, 0.000000000000000000, 0.000000000000000000 ) ) ;
#66 = ORIENTED_EDGE ( 'NONE', *, *, #252, .F. ) ;
#67 = DIRECTION ( 'NONE',  ( 1.000000000000000000, 0.000000000000000000, 0.000000000000000000 ) ) ;
#68 = CALENDAR_DATE ( 2023, 13, 2 ) ;
#69 = ORIENTED_EDGE ( 'NONE', *, *, #99, .T. ) ;
#70 = MANIFOLD_SOLID_BREP ( 'Pøidat vysunutím3', #175 ) ;
#71 = CARTESIAN_POINT ( 'NONE',  ( -9.000000000000000000, 0.000000000000000000, 0.000000000000000000 ) ) ;
#72 = CC_DESIGN_PERSON_AND_ORGANIZATION_ASSIGNMENT ( #51, #90, ( #182 ) ) ;
#73 = CIRCLE ( 'NONE', #127, 9.000000000000000000 ) ;
#74 = CARTESIAN_POINT ( 'NONE',  ( 0.000000000000000000, 0.000000000000000000, 0.000000000000000000 ) ) ;
#75 = CARTESIAN_POINT ( 'NONE',  ( 0.000000000000000000, 0.000000000000000000, 7.000000000000000000 ) ) ;
#76 = CC_DESIGN_SECURITY_CLASSIFICATION ( #182, ( #232 ) ) ;
#77 = FACE_OUTER_BOUND ( 'NONE', #8, .T. ) ;
#78 = PERSON ( 'NEURÈENÝ', 'NEURÈENÝ', 'NEURÈENÝ', ('NEURÈENÝ'), ('NEURÈENÝ'), ('NEURÈENÝ') ) ;
#79 = DIRECTION ( 'NONE',  ( 1.000000000000000000, 0.000000000000000000, 0.000000000000000000 ) ) ;
#80 = ADVANCED_FACE ( 'NONE', ( #235 ), #107, .T. ) ;
#81 = AXIS2_PLACEMENT_3D ( 'NONE', #234, #19, #130 ) ;
#82 = EDGE_LOOP ( 'NONE', ( #44, #143 ) ) ;
#83 = DIRECTION ( 'NONE',  ( -0.000000000000000000, -0.000000000000000000, -1.000000000000000000 ) ) ;
#84 = CALENDAR_DATE ( 2023, 13, 2 ) ;
#85 = ORIENTED_EDGE ( 'NONE', *, *, #99, .F. ) ;
#86 = APPROVAL_STATUS ( 'not_yet_approved' ) ;
#87 = EDGE_LOOP ( 'NONE', ( #32, #10 ) ) ;
#88 = PERSON_AND_ORGANIZATION ( #78, #24 ) ;
#89 = APPROVAL_DATE_TIME ( #12, #28 ) ;
#90 = PERSON_AND_ORGANIZATION_ROLE ( 'classification_officer' ) ;
#91 = ORIENTED_EDGE ( 'NONE', *, *, #193, .F. ) ;
#92 = EDGE_CURVE ( 'NONE', #221, #224, #159, .T. ) ;
#93 = AXIS2_PLACEMENT_3D ( 'NONE', #111, #233, #129 ) ;
#94 = DIRECTION ( 'NONE',  ( 0.000000000000000000, 0.000000000000000000, 1.000000000000000000 ) ) ;
#95 = ADVANCED_FACE ( 'NONE', ( #176 ), #1, .T. ) ;
#96 = DIRECTION ( 'NONE',  ( 0.000000000000000000, 0.000000000000000000, 1.000000000000000000 ) ) ;
#97 = CARTESIAN_POINT ( 'NONE',  ( -9.000000000000000000, 0.000000000000000000, 7.000000000000000000 ) ) ;
#98 = CARTESIAN_POINT ( 'NONE',  ( -6.250000000000000000, 0.000000000000000000, 7.000000000000000000 ) ) ;
#99 = EDGE_CURVE ( 'NONE', #139, #204, #142, .T. ) ;
#100 = ORIENTED_EDGE ( 'NONE', *, *, #133, .F. ) ;
#101 = APPLICATION_PROTOCOL_DEFINITION ( 'international standard', 'config_control_design', 1994, #3 ) ;
#102 = ORIENTED_EDGE ( 'NONE', *, *, #133, .T. ) ;
#103 = CALENDAR_DATE ( 2023, 13, 2 ) ;
#104 = COORDINATED_UNIVERSAL_TIME_OFFSET ( 1, 0, .AHEAD. ) ;
#105 = SECURITY_CLASSIFICATION_LEVEL ( 'unclassified' ) ;
#106 = EDGE_LOOP ( 'NONE', ( #66, #85 ) ) ;
#107 = CYLINDRICAL_SURFACE ( 'NONE', #81, 6.250000000000000000 ) ;
#108 = ADVANCED_FACE ( 'NONE', ( #214, #39 ), #116, .T. ) ;
#109 = DIRECTION ( 'NONE',  ( 1.000000000000000000, 0.000000000000000000, 0.000000000000000000 ) ) ;
#110 = LOCAL_TIME ( 12, 38, 16.00000000000000000, #230 ) ;
#111 = CARTESIAN_POINT ( 'NONE',  ( 0.000000000000000000, 0.000000000000000000, 160.0000000000000000 ) ) ;
#112 = CARTESIAN_POINT ( 'NONE',  ( 0.000000000000000000, 0.000000000000000000, 7.000000000000000000 ) ) ;
#113 = APPROVAL_PERSON_ORGANIZATION ( #206, #28, #247 ) ;
#114 = CC_DESIGN_PERSON_AND_ORGANIZATION_ASSIGNMENT ( #11, #228, ( #232 ) ) ;
#115 = FACE_OUTER_BOUND ( 'NONE', #87, .T. ) ;
#116 = PLANE ( 'NONE',  #178 ) ;
#117 = EDGE_LOOP ( 'NONE', ( #119, #16, #9, #45 ) ) ;
#118 = DIRECTION ( 'NONE',  ( 0.000000000000000000, 0.000000000000000000, 1.000000000000000000 ) ) ;
#119 = ORIENTED_EDGE ( 'NONE', *, *, #197, .F. ) ;
#120 =( GEOMETRIC_REPRESENTATION_CONTEXT ( 3 ) GLOBAL_UNCERTAINTY_ASSIGNED_CONTEXT ( ( #250 ) ) GLOBAL_UNIT_ASSIGNED_CONTEXT ( ( #179, #138, #244 ) ) REPRESENTATION_CONTEXT ( 'NONE', 'WORKASPACE' ) );
#121 = CARTESIAN_POINT ( 'NONE',  ( 0.000000000000000000, 0.000000000000000000, 160.0000000000000000 ) ) ;
#122 = AXIS2_PLACEMENT_3D ( 'NONE', #75, #55, #20 ) ;
#123 = PERSON_AND_ORGANIZATION ( #78, #24 ) ;
#124 = VECTOR ( 'NONE', #83, 1000.000000000000000 ) ;
#125 = CC_DESIGN_APPROVAL ( #194, ( #232 ) ) ;
#126 = APPROVAL_STATUS ( 'not_yet_approved' ) ;
#127 = AXIS2_PLACEMENT_3D ( 'NONE', #238, #135, #65 ) ;
#128 = CALENDAR_DATE ( 2023, 13, 2 ) ;
#129 = DIRECTION ( 'NONE',  ( -1.000000000000000000, 0.000000000000000000, 0.000000000000000000 ) ) ;
#130 = DIRECTION ( 'NONE',  ( -1.000000000000000000, 0.000000000000000000, 0.000000000000000000 ) ) ;
#131 = DIRECTION ( 'NONE',  ( 1.000000000000000000, 0.000000000000000000, 0.000000000000000000 ) ) ;
#132 = DIRECTION ( 'NONE',  ( -1.000000000000000000, 0.000000000000000000, 0.000000000000000000 ) ) ;
#133 = EDGE_CURVE ( 'NONE', #221, #64, #222, .T. ) ;
#134 = LOCAL_TIME ( 12, 38, 16.00000000000000000, #165 ) ;
#135 = DIRECTION ( 'NONE',  ( 0.000000000000000000, 0.000000000000000000, 1.000000000000000000 ) ) ;
#136 = ORIENTED_EDGE ( 'NONE', *, *, #147, .F. ) ;
#137 = PLANE ( 'NONE',  #173 ) ;
#138 =( NAMED_UNIT ( * ) PLANE_ANGLE_UNIT ( ) SI_UNIT ( $, .RADIAN. ) );
#139 = VERTEX_POINT ( 'NONE', #56 ) ;
#140 = AXIS2_PLACEMENT_3D ( 'NONE', #112, #94, #7 ) ;
#141 = PERSON_AND_ORGANIZATION_ROLE ( 'design_supplier' ) ;
#142 = CIRCLE ( 'NONE', #33, 6.250000000000000000 ) ;
#143 = ORIENTED_EDGE ( 'NONE', *, *, #147, .T. ) ;
#144 = EDGE_CURVE ( 'NONE', #171, #204, #200, .T. ) ;
#145 = APPROVAL_STATUS ( 'not_yet_approved' ) ;
#146 = SHAPE_DEFINITION_REPRESENTATION ( #153, #35 ) ;
#147 = EDGE_CURVE ( 'NONE', #224, #221, #73, .T. ) ;
#148 = APPROVAL_ROLE ( '' ) ;
#149 = CC_DESIGN_PERSON_AND_ORGANIZATION_ASSIGNMENT ( #186, #229, ( #203 ) ) ;
#150 = DIRECTION ( 'NONE',  ( 0.000000000000000000, 0.000000000000000000, 1.000000000000000000 ) ) ;
#151 = CC_DESIGN_APPROVAL ( #28, ( #182 ) ) ;
#152 = DIRECTION ( 'NONE',  ( -0.000000000000000000, -0.000000000000000000, -1.000000000000000000 ) ) ;
#153 = PRODUCT_DEFINITION_SHAPE ( 'NONE', 'NONE',  #203 ) ;
#154 = CARTESIAN_POINT ( 'NONE',  ( 0.000000000000000000, 0.000000000000000000, 7.000000000000000000 ) ) ;
#155 = PLANE ( 'NONE',  #156 ) ;
#156 = AXIS2_PLACEMENT_3D ( 'NONE', #43, #118, #198 ) ;
#157 = CC_DESIGN_PERSON_AND_ORGANIZATION_ASSIGNMENT ( #88, #141, ( #232 ) ) ;
#158 = CIRCLE ( 'NONE', #140, 6.250000000000000000 ) ;
#159 = CIRCLE ( 'NONE', #183, 9.000000000000000000 ) ;
#160 = EDGE_LOOP ( 'NONE', ( #246, #61 ) ) ;
#161 = ORIENTED_EDGE ( 'NONE', *, *, #190, .F. ) ;
#162 = PERSON_AND_ORGANIZATION ( #78, #24 ) ;
#163 = ORIENTED_EDGE ( 'NONE', *, *, #243, .T. ) ;
#164 = LOCAL_TIME ( 12, 38, 16.00000000000000000, #189 ) ;
#165 = COORDINATED_UNIVERSAL_TIME_OFFSET ( 1, 0, .AHEAD. ) ;
#166 = ADVANCED_FACE ( 'NONE', ( #115 ), #137, .T. ) ;
#167 = ORIENTED_EDGE ( 'NONE', *, *, #197, .T. ) ;
#168 = DIRECTION ( 'NONE',  ( 0.000000000000000000, 0.000000000000000000, 1.000000000000000000 ) ) ;
#169 = LOCAL_TIME ( 12, 38, 16.00000000000000000, #249 ) ;
#170 = DATE_AND_TIME ( #128, #134 ) ;
#171 = VERTEX_POINT ( 'NONE', #42 ) ;
#172 = DIRECTION ( 'NONE',  ( 0.000000000000000000, 0.000000000000000000, 1.000000000000000000 ) ) ;
#173 = AXIS2_PLACEMENT_3D ( 'NONE', #121, #180, #202 ) ;
#174 = FACE_OUTER_BOUND ( 'NONE', #117, .T. ) ;
#175 = CLOSED_SHELL ( 'NONE', ( #80, #95, #248, #108, #216, #37, #166 ) ) ;
#176 = FACE_OUTER_BOUND ( 'NONE', #199, .T. ) ;
#177 = DIRECTION ( 'NONE',  ( 0.000000000000000000, 0.000000000000000000, 1.000000000000000000 ) ) ;
#178 = AXIS2_PLACEMENT_3D ( 'NONE', #154, #96, #195 ) ;
#179 =( LENGTH_UNIT ( ) NAMED_UNIT ( * ) SI_UNIT ( .MILLI., .METRE. ) );
#180 = DIRECTION ( 'NONE',  ( 0.000000000000000000, 0.000000000000000000, 1.000000000000000000 ) ) ;
#181 = DIRECTION ( 'NONE',  ( -0.000000000000000000, -0.000000000000000000, -1.000000000000000000 ) ) ;
#182 = SECURITY_CLASSIFICATION ( '', '', #105 ) ;
#183 = AXIS2_PLACEMENT_3D ( 'NONE', #213, #17, #109 ) ;
#184 = CYLINDRICAL_SURFACE ( 'NONE', #210, 9.000000000000000000 ) ;
#185 = ORIENTED_EDGE ( 'NONE', *, *, #40, .T. ) ;
#186 = PERSON_AND_ORGANIZATION ( #78, #24 ) ;
#187 = PERSON_AND_ORGANIZATION_ROLE ( 'design_owner' ) ;
#188 = DATE_AND_TIME ( #208, #110 ) ;
#189 = COORDINATED_UNIVERSAL_TIME_OFFSET ( 1, 0, .AHEAD. ) ;
#190 = EDGE_CURVE ( 'NONE', #27, #171, #57, .T. ) ;
#191 = DATE_TIME_ROLE ( 'classification_date' ) ;
#192 = LOCAL_TIME ( 12, 38, 16.00000000000000000, #104 ) ;
#193 = EDGE_CURVE ( 'NONE', #224, #218, #219, .T. ) ;
#194 = APPROVAL ( #86, 'NEURÈENÝ' ) ;
#195 = DIRECTION ( 'NONE',  ( 1.000000000000000000, 0.000000000000000000, -0.000000000000000000 ) ) ;
#196 = APPROVAL_PERSON_ORGANIZATION ( #123, #194, #148 ) ;
#197 = EDGE_CURVE ( 'NONE', #27, #139, #217, .T. ) ;
#198 = DIRECTION ( 'NONE',  ( 1.000000000000000000, 0.000000000000000000, -0.000000000000000000 ) ) ;
#199 = EDGE_LOOP ( 'NONE', ( #136, #226, #163, #100 ) ) ;
#200 = LINE ( 'NONE', #23, #54 ) ;
#201 = EDGE_LOOP ( 'NONE', ( #161, #167, #69, #242 ) ) ;
#202 = DIRECTION ( 'NONE',  ( 1.000000000000000000, 0.000000000000000000, -0.000000000000000000 ) ) ;
#203 = PRODUCT_DEFINITION ( 'NEZNÁMÝ', '', #232, #63 ) ;
#204 = VERTEX_POINT ( 'NONE', #98 ) ;
#205 = AXIS2_PLACEMENT_3D ( 'NONE', #6, #5, #79 ) ;
#206 = PERSON_AND_ORGANIZATION ( #78, #24 ) ;
#207 = AXIS2_PLACEMENT_3D ( 'NONE', #34, #172, #52 ) ;
#208 = CALENDAR_DATE ( 2023, 13, 2 ) ;
#209 = CARTESIAN_POINT ( 'NONE',  ( 0.000000000000000000, 0.000000000000000000, 0.000000000000000000 ) ) ;
#210 = AXIS2_PLACEMENT_3D ( 'NONE', #41, #181, #132 ) ;
#211 = VECTOR ( 'NONE', #152, 1000.000000000000000 ) ;
#212 = DIRECTION ( 'NONE',  ( 0.000000000000000000, 0.000000000000000000, 1.000000000000000000 ) ) ;
#213 = CARTESIAN_POINT ( 'NONE',  ( 0.000000000000000000, 0.000000000000000000, 7.000000000000000000 ) ) ;
#214 = FACE_BOUND ( 'NONE', #106, .T. ) ;
#215 = DIRECTION ( 'NONE',  ( -0.000000000000000000, -0.000000000000000000, -1.000000000000000000 ) ) ;
#216 = ADVANCED_FACE ( 'NONE', ( #46 ), #155, .F. ) ;
#217 = LINE ( 'NONE', #4, #124 ) ;
#218 = VERTEX_POINT ( 'NONE', #25 ) ;
#219 = LINE ( 'NONE', #59, #18 ) ;
#220 = APPLICATION_CONTEXT ( 'configuration controlled 3d designs of mechanical parts and assemblies' ) ;
#221 = VERTEX_POINT ( 'NONE', #97 ) ;
#222 = LINE ( 'NONE', #236, #211 ) ;
#223 = CC_DESIGN_DATE_AND_TIME_ASSIGNMENT ( #170, #191, ( #182 ) ) ;
#224 = VERTEX_POINT ( 'NONE', #237 ) ;
#225 = APPROVAL_DATE_TIME ( #188, #194 ) ;
#226 = ORIENTED_EDGE ( 'NONE', *, *, #193, .T. ) ;
#227 = APPROVAL ( #145, 'NEURÈENÝ' ) ;
#228 = PERSON_AND_ORGANIZATION_ROLE ( 'creator' ) ;
#229 = PERSON_AND_ORGANIZATION_ROLE ( 'creator' ) ;
#230 = COORDINATED_UNIVERSAL_TIME_OFFSET ( 1, 0, .AHEAD. ) ;
#231 = PRODUCT_RELATED_PRODUCT_CATEGORY ( 'detail', '', ( #254 ) ) ;
#232 = PRODUCT_DEFINITION_FORMATION_WITH_SPECIFIED_SOURCE ( 'LIBOVOLNÝ', '', #254, .NOT_KNOWN. ) ;
#233 = DIRECTION ( 'NONE',  ( -0.000000000000000000, -0.000000000000000000, -1.000000000000000000 ) ) ;
#234 = CARTESIAN_POINT ( 'NONE',  ( 0.000000000000000000, 0.000000000000000000, 160.0000000000000000 ) ) ;
#235 = FACE_OUTER_BOUND ( 'NONE', #201, .T. ) ;
#236 = CARTESIAN_POINT ( 'NONE',  ( -9.000000000000000000, 0.000000000000000000, 7.000000000000000000 ) ) ;
#237 = CARTESIAN_POINT ( 'NONE',  ( 9.000000000000000000, 1.102182119232617714E-15, 7.000000000000000000 ) ) ;
#238 = CARTESIAN_POINT ( 'NONE',  ( 0.000000000000000000, 0.000000000000000000, 7.000000000000000000 ) ) ;
#239 = CIRCLE ( 'NONE', #50, 9.000000000000000000 ) ;
#240 = CIRCLE ( 'NONE', #38, 9.000000000000000000 ) ;
#241 = APPLICATION_PROTOCOL_DEFINITION ( 'international standard', 'config_control_design', 1994, #220 ) ;
#242 = ORIENTED_EDGE ( 'NONE', *, *, #144, .F. ) ;
#243 = EDGE_CURVE ( 'NONE', #218, #64, #239, .T. ) ;
#244 =( NAMED_UNIT ( * ) SI_UNIT ( $, .STERADIAN. ) SOLID_ANGLE_UNIT ( ) );
#245 = DATE_AND_TIME ( #84, #164 ) ;
#246 = ORIENTED_EDGE ( 'NONE', *, *, #40, .F. ) ;
#247 = APPROVAL_ROLE ( '' ) ;
#248 = ADVANCED_FACE ( 'NONE', ( #77 ), #184, .T. ) ;
#249 = COORDINATED_UNIVERSAL_TIME_OFFSET ( 1, 0, .AHEAD. ) ;
#250 = UNCERTAINTY_MEASURE_WITH_UNIT (LENGTH_MEASURE( 1.000000000000000082E-05 ), #179, 'distance_accuracy_value', 'NONE');
#251 = APPROVAL_ROLE ( '' ) ;
#252 = EDGE_CURVE ( 'NONE', #204, #139, #158, .T. ) ;
#253 = CARTESIAN_POINT ( 'NONE',  ( 6.250000000000000000, 7.654042494670957606E-16, 160.0000000000000000 ) ) ;
#254 = PRODUCT ( 'e0fa', 'e0fa', '', ( #30 ) ) ;
#255 = CYLINDRICAL_SURFACE ( 'NONE', #93, 6.250000000000000000 ) ;
ENDSEC;
END-ISO-10303-21;
