ISO-10303-21;
HEADER;
FILE_DESCRIPTION (( 'STEP AP203' ),
    '1' );
FILE_NAME ('e9bd.STEP',
    '2023-02-13T16:08:40',
    ( '' ),
    ( '' ),
    'SwSTEP 2.0',
    'SolidWorks 2019',
    '' );
FILE_SCHEMA (( 'CONFIG_CONTROL_DESIGN' ));
ENDSEC;

DATA;
#1 = CALENDAR_DATE ( 2023, 13, 2 ) ;
#2 = LOCAL_TIME ( 17, 8, 40.00000000000000000, #62 ) ;
#3 =( NAMED_UNIT ( * ) PLANE_ANGLE_UNIT ( ) SI_UNIT ( $, .RADIAN. ) );
#4 = CARTESIAN_POINT ( 'NONE',  ( 0.000000000000000000, 0.000000000000000000, 0.000000000000000000 ) ) ;
#5 = APPROVAL_ROLE ( '' ) ;
#6 = CIRCLE ( 'NONE', #70, 4.000000000000000000 ) ;
#7 = CARTESIAN_POINT ( 'NONE',  ( 4.000000000000000000, 4.898587196589412829E-16, 0.000000000000000000 ) ) ;
#8 = VERTEX_POINT ( 'NONE', #109 ) ;
#9 = AXIS2_PLACEMENT_3D ( 'NONE', #249, #149, #74 ) ;
#10 = FACE_OUTER_BOUND ( 'NONE', #35, .T. ) ;
#11 = CARTESIAN_POINT ( 'NONE',  ( 4.000000000000000000, 4.898587196589412829E-16, 3.000000000000000000 ) ) ;
#12 = PERSON_AND_ORGANIZATION_ROLE ( 'creator' ) ;
#13 = CC_DESIGN_PERSON_AND_ORGANIZATION_ASSIGNMENT ( #29, #89, ( #42 ) ) ;
#14 = VERTEX_POINT ( 'NONE', #11 ) ;
#15 = FACE_BOUND ( 'NONE', #86, .T. ) ;
#16 = DIRECTION ( 'NONE',  ( 1.000000000000000000, 0.000000000000000000, 0.000000000000000000 ) ) ;
#17 = CC_DESIGN_DATE_AND_TIME_ASSIGNMENT ( #40, #182, ( #198 ) ) ;
#18 = ADVANCED_FACE ( 'NONE', ( #69 ), #72, .T. ) ;
#19 = CARTESIAN_POINT ( 'NONE',  ( 0.000000000000000000, 0.000000000000000000, 0.000000000000000000 ) ) ;
#20 = CC_DESIGN_PERSON_AND_ORGANIZATION_ASSIGNMENT ( #219, #26, ( #122 ) ) ;
#21 = CYLINDRICAL_SURFACE ( 'NONE', #220, 4.000000000000000000 ) ;
#22 = ADVANCED_FACE ( 'NONE', ( #10 ), #208, .F. ) ;
#23 = APPROVAL_STATUS ( 'not_yet_approved' ) ;
#24 = APPROVAL_PERSON_ORGANIZATION ( #82, #84, #5 ) ;
#25 = DIRECTION ( 'NONE',  ( -0.000000000000000000, -0.000000000000000000, -1.000000000000000000 ) ) ;
#26 = PERSON_AND_ORGANIZATION_ROLE ( 'design_owner' ) ;
#27 = DATE_AND_TIME ( #98, #137 ) ;
#28 = CIRCLE ( 'NONE', #103, 2.100000000000000089 ) ;
#29 = PERSON_AND_ORGANIZATION ( #77, #164 ) ;
#30 = DIRECTION ( 'NONE',  ( -1.000000000000000000, 0.000000000000000000, 0.000000000000000000 ) ) ;
#31 = AXIS2_PLACEMENT_3D ( 'NONE', #138, #135, #119 ) ;
#32 = CALENDAR_DATE ( 2023, 13, 2 ) ;
#33 = VERTEX_POINT ( 'NONE', #212 ) ;
#34 = APPROVAL_ROLE ( '' ) ;
#35 = EDGE_LOOP ( 'NONE', ( #185, #131 ) ) ;
#36 = AXIS2_PLACEMENT_3D ( 'NONE', #195, #197, #140 ) ;
#37 = FACE_OUTER_BOUND ( 'NONE', #162, .T. ) ;
#38 = CARTESIAN_POINT ( 'NONE',  ( -4.000000000000000000, 0.000000000000000000, 3.000000000000000000 ) ) ;
#39 = DIRECTION ( 'NONE',  ( 1.000000000000000000, 0.000000000000000000, 0.000000000000000000 ) ) ;
#40 = DATE_AND_TIME ( #102, #2 ) ;
#41 = APPROVAL ( #71, 'NEURÈENÝ' ) ;
#42 = PRODUCT_DEFINITION_FORMATION_WITH_SPECIFIED_SOURCE ( 'LIBOVOLNÝ', '', #122, .NOT_KNOWN. ) ;
#43 = CARTESIAN_POINT ( 'NONE',  ( 0.000000000000000000, 0.000000000000000000, 0.000000000000000000 ) ) ;
#44 =( NAMED_UNIT ( * ) SI_UNIT ( $, .STERADIAN. ) SOLID_ANGLE_UNIT ( ) );
#45 = CC_DESIGN_PERSON_AND_ORGANIZATION_ASSIGNMENT ( #85, #12, ( #42 ) ) ;
#46 = LINE ( 'NONE', #157, #132 ) ;
#47 = AXIS2_PLACEMENT_3D ( 'NONE', #55, #153, #133 ) ;
#48 = ORIENTED_EDGE ( 'NONE', *, *, #246, .T. ) ;
#49 = ORIENTED_EDGE ( 'NONE', *, *, #159, .T. ) ;
#50 = ORIENTED_EDGE ( 'NONE', *, *, #130, .F. ) ;
#51 = DIRECTION ( 'NONE',  ( 1.000000000000000000, 0.000000000000000000, 0.000000000000000000 ) ) ;
#52 = ADVANCED_FACE ( 'NONE', ( #156 ), #233, .T. ) ;
#53 = CIRCLE ( 'NONE', #47, 2.100000000000000089 ) ;
#54 = APPROVAL_PERSON_ORGANIZATION ( #176, #183, #83 ) ;
#55 = CARTESIAN_POINT ( 'NONE',  ( 0.000000000000000000, 0.000000000000000000, 3.000000000000000000 ) ) ;
#56 = DIRECTION ( 'NONE',  ( 0.000000000000000000, 0.000000000000000000, 1.000000000000000000 ) ) ;
#57 = ADVANCED_FACE ( 'NONE', ( #15, #37 ), #111, .T. ) ;
#58 = CYLINDRICAL_SURFACE ( 'NONE', #31, 2.100000000000000089 ) ;
#59 = DIRECTION ( 'NONE',  ( -1.000000000000000000, 0.000000000000000000, 0.000000000000000000 ) ) ;
#60 = PERSON_AND_ORGANIZATION_ROLE ( 'creator' ) ;
#61 = EDGE_CURVE ( 'NONE', #8, #33, #163, .T. ) ;
#62 = COORDINATED_UNIVERSAL_TIME_OFFSET ( 1, 0, .AHEAD. ) ;
#63 = EDGE_CURVE ( 'NONE', #166, #14, #125, .T. ) ;
#64 = LINE ( 'NONE', #100, #87 ) ;
#65 = ORIENTED_EDGE ( 'NONE', *, *, #155, .F. ) ;
#66 = VECTOR ( 'NONE', #254, 1000.000000000000000 ) ;
#67 = ORIENTED_EDGE ( 'NONE', *, *, #196, .T. ) ;
#68 = ORIENTED_EDGE ( 'NONE', *, *, #112, .T. ) ;
#69 = FACE_OUTER_BOUND ( 'NONE', #242, .T. ) ;
#70 = AXIS2_PLACEMENT_3D ( 'NONE', #4, #213, #178 ) ;
#71 = APPROVAL_STATUS ( 'not_yet_approved' ) ;
#72 = CYLINDRICAL_SURFACE ( 'NONE', #76, 2.100000000000000089 ) ;
#73 = CARTESIAN_POINT ( 'NONE',  ( 0.000000000000000000, 0.000000000000000000, 3.000000000000000000 ) ) ;
#74 = DIRECTION ( 'NONE',  ( 1.000000000000000000, 0.000000000000000000, -0.000000000000000000 ) ) ;
#75 = DESIGN_CONTEXT ( 'detailed design', #175, 'design' ) ;
#76 = AXIS2_PLACEMENT_3D ( 'NONE', #203, #225, #30 ) ;
#77 = PERSON ( 'NEURÈENÝ', 'NEURÈENÝ', 'NEURÈENÝ', ('NEURÈENÝ'), ('NEURÈENÝ'), ('NEURÈENÝ') ) ;
#78 = CARTESIAN_POINT ( 'NONE',  ( 2.100000000000000089, 2.571758278209441957E-16, 3.000000000000000000 ) ) ;
#79 = DIRECTION ( 'NONE',  ( 0.000000000000000000, 0.000000000000000000, 1.000000000000000000 ) ) ;
#80 = PERSON_AND_ORGANIZATION ( #77, #164 ) ;
#81 = CARTESIAN_POINT ( 'NONE',  ( -2.100000000000000089, 0.000000000000000000, 3.000000000000000000 ) ) ;
#82 = PERSON_AND_ORGANIZATION ( #77, #164 ) ;
#83 = APPROVAL_ROLE ( '' ) ;
#84 = APPROVAL ( #23, 'NEURÈENÝ' ) ;
#85 = PERSON_AND_ORGANIZATION ( #77, #164 ) ;
#86 = EDGE_LOOP ( 'NONE', ( #230, #107 ) ) ;
#87 = VECTOR ( 'NONE', #218, 1000.000000000000000 ) ;
#88 = PERSON_AND_ORGANIZATION ( #77, #164 ) ;
#89 = PERSON_AND_ORGANIZATION_ROLE ( 'design_supplier' ) ;
#90 = VERTEX_POINT ( 'NONE', #78 ) ;
#91 = APPROVAL_PERSON_ORGANIZATION ( #88, #41, #34 ) ;
#92 = DIRECTION ( 'NONE',  ( -1.000000000000000000, 0.000000000000000000, 0.000000000000000000 ) ) ;
#93 = DIRECTION ( 'NONE',  ( -0.000000000000000000, -0.000000000000000000, -1.000000000000000000 ) ) ;
#94 = CARTESIAN_POINT ( 'NONE',  ( 0.000000000000000000, 0.000000000000000000, 3.000000000000000000 ) ) ;
#95 = CC_DESIGN_PERSON_AND_ORGANIZATION_ASSIGNMENT ( #80, #60, ( #198 ) ) ;
#96 = CARTESIAN_POINT ( 'NONE',  ( -2.100000000000000089, 0.000000000000000000, 160.0000000000000000 ) ) ;
#97 = CARTESIAN_POINT ( 'NONE',  ( 0.000000000000000000, 0.000000000000000000, 3.000000000000000000 ) ) ;
#98 = CALENDAR_DATE ( 2023, 13, 2 ) ;
#99 = ADVANCED_FACE ( 'NONE', ( #134 ), #21, .T. ) ;
#100 = CARTESIAN_POINT ( 'NONE',  ( 4.000000000000000000, 4.898587196589412829E-16, 3.000000000000000000 ) ) ;
#101 = APPLICATION_PROTOCOL_DEFINITION ( 'international standard', 'config_control_design', 1994, #175 ) ;
#102 = CALENDAR_DATE ( 2023, 13, 2 ) ;
#103 = AXIS2_PLACEMENT_3D ( 'NONE', #97, #211, #51 ) ;
#104 = AXIS2_PLACEMENT_3D ( 'NONE', #43, #216, #124 ) ;
#105 = EDGE_CURVE ( 'NONE', #90, #248, #28, .T. ) ;
#106 = SHAPE_DEFINITION_REPRESENTATION ( #120, #143 ) ;
#107 = ORIENTED_EDGE ( 'NONE', *, *, #105, .F. ) ;
#108 = DATE_AND_TIME ( #224, #139 ) ;
#109 = CARTESIAN_POINT ( 'NONE',  ( -2.100000000000000089, 0.000000000000000000, 160.0000000000000000 ) ) ;
#110 = VERTEX_POINT ( 'NONE', #174 ) ;
#111 = PLANE ( 'NONE',  #247 ) ;
#112 = EDGE_CURVE ( 'NONE', #166, #110, #255, .T. ) ;
#113 = DIRECTION ( 'NONE',  ( 0.000000000000000000, 0.000000000000000000, 1.000000000000000000 ) ) ;
#114 = EDGE_CURVE ( 'NONE', #14, #166, #188, .T. ) ;
#115 = DIRECTION ( 'NONE',  ( -0.000000000000000000, -0.000000000000000000, -1.000000000000000000 ) ) ;
#116 = CIRCLE ( 'NONE', #214, 2.100000000000000089 ) ;
#117 = CC_DESIGN_SECURITY_CLASSIFICATION ( #200, ( #42 ) ) ;
#118 = DIRECTION ( 'NONE',  ( 1.000000000000000000, 0.000000000000000000, -0.000000000000000000 ) ) ;
#119 = DIRECTION ( 'NONE',  ( -1.000000000000000000, 0.000000000000000000, 0.000000000000000000 ) ) ;
#120 = PRODUCT_DEFINITION_SHAPE ( 'NONE', 'NONE',  #198 ) ;
#121 = APPROVAL_STATUS ( 'not_yet_approved' ) ;
#122 = PRODUCT ( 'e9bd', 'e9bd', '', ( #199 ) ) ;
#123 = APPROVAL_DATE_TIME ( #27, #84 ) ;
#124 = DIRECTION ( 'NONE',  ( 1.000000000000000000, 0.000000000000000000, 0.000000000000000000 ) ) ;
#125 = CIRCLE ( 'NONE', #237, 4.000000000000000000 ) ;
#126 = APPROVAL_DATE_TIME ( #108, #41 ) ;
#127 = ORIENTED_EDGE ( 'NONE', *, *, #130, .T. ) ;
#128 = COORDINATED_UNIVERSAL_TIME_OFFSET ( 1, 0, .AHEAD. ) ;
#129 = AXIS2_PLACEMENT_3D ( 'NONE', #251, #115, #59 ) ;
#130 = EDGE_CURVE ( 'NONE', #33, #8, #116, .T. ) ;
#131 = ORIENTED_EDGE ( 'NONE', *, *, #177, .F. ) ;
#132 = VECTOR ( 'NONE', #25, 1000.000000000000000 ) ;
#133 = DIRECTION ( 'NONE',  ( 1.000000000000000000, 0.000000000000000000, 0.000000000000000000 ) ) ;
#134 = FACE_OUTER_BOUND ( 'NONE', #205, .T. ) ;
#135 = DIRECTION ( 'NONE',  ( -0.000000000000000000, -0.000000000000000000, -1.000000000000000000 ) ) ;
#136 = AXIS2_PLACEMENT_3D ( 'NONE', #231, #113, #16 ) ;
#137 = LOCAL_TIME ( 17, 8, 40.00000000000000000, #238 ) ;
#138 = CARTESIAN_POINT ( 'NONE',  ( 0.000000000000000000, 0.000000000000000000, 160.0000000000000000 ) ) ;
#139 = LOCAL_TIME ( 17, 8, 40.00000000000000000, #244 ) ;
#140 = DIRECTION ( 'NONE',  ( 1.000000000000000000, 0.000000000000000000, 0.000000000000000000 ) ) ;
#141 = CARTESIAN_POINT ( 'NONE',  ( -4.000000000000000000, 0.000000000000000000, 3.000000000000000000 ) ) ;
#142 = SECURITY_CLASSIFICATION_LEVEL ( 'unclassified' ) ;
#143 = ADVANCED_BREP_SHAPE_REPRESENTATION ( 'e9bd', ( #154, #104 ), #215 ) ;
#144 = ORIENTED_EDGE ( 'NONE', *, *, #63, .F. ) ;
#145 = ORIENTED_EDGE ( 'NONE', *, *, #155, .T. ) ;
#146 = ORIENTED_EDGE ( 'NONE', *, *, #63, .T. ) ;
#147 = ORIENTED_EDGE ( 'NONE', *, *, #177, .T. ) ;
#148 = ADVANCED_FACE ( 'NONE', ( #152 ), #170, .T. ) ;
#149 = DIRECTION ( 'NONE',  ( 0.000000000000000000, 0.000000000000000000, 1.000000000000000000 ) ) ;
#150 = DIRECTION ( 'NONE',  ( 0.000000000000000000, 0.000000000000000000, 1.000000000000000000 ) ) ;
#151 = AXIS2_PLACEMENT_3D ( 'NONE', #232, #79, #39 ) ;
#152 = FACE_OUTER_BOUND ( 'NONE', #189, .T. ) ;
#153 = DIRECTION ( 'NONE',  ( 0.000000000000000000, 0.000000000000000000, 1.000000000000000000 ) ) ;
#154 = MANIFOLD_SOLID_BREP ( 'Pøidat vysunutím3', #193 ) ;
#155 = EDGE_CURVE ( 'NONE', #8, #248, #192, .T. ) ;
#156 = FACE_OUTER_BOUND ( 'NONE', #228, .T. ) ;
#157 = CARTESIAN_POINT ( 'NONE',  ( 2.100000000000000089, 2.571758278209441957E-16, 160.0000000000000000 ) ) ;
#158 = APPLICATION_PROTOCOL_DEFINITION ( 'international standard', 'config_control_design', 1994, #217 ) ;
#159 = EDGE_CURVE ( 'NONE', #248, #90, #53, .T. ) ;
#160 = ADVANCED_FACE ( 'NONE', ( #210 ), #58, .T. ) ;
#161 = DATE_TIME_ROLE ( 'classification_date' ) ;
#162 = EDGE_LOOP ( 'NONE', ( #146, #206 ) ) ;
#163 = CIRCLE ( 'NONE', #136, 2.100000000000000089 ) ;
#164 = ORGANIZATION ( 'NEURÈENÝ', 'NEURÈENÝ', '' ) ;
#165 = ORIENTED_EDGE ( 'NONE', *, *, #61, .F. ) ;
#166 = VERTEX_POINT ( 'NONE', #141 ) ;
#167 = DATE_AND_TIME ( #1, #227 ) ;
#168 = ORIENTED_EDGE ( 'NONE', *, *, #234, .T. ) ;
#169 = CC_DESIGN_APPROVAL ( #84, ( #198 ) ) ;
#170 = CYLINDRICAL_SURFACE ( 'NONE', #129, 4.000000000000000000 ) ;
#171 = CARTESIAN_POINT ( 'NONE',  ( 0.000000000000000000, 0.000000000000000000, 3.000000000000000000 ) ) ;
#172 = CC_DESIGN_APPROVAL ( #183, ( #42 ) ) ;
#173 = DIRECTION ( 'NONE',  ( 1.000000000000000000, 0.000000000000000000, -0.000000000000000000 ) ) ;
#174 = CARTESIAN_POINT ( 'NONE',  ( -4.000000000000000000, 0.000000000000000000, 0.000000000000000000 ) ) ;
#175 = APPLICATION_CONTEXT ( 'configuration controlled 3d designs of mechanical parts and assemblies' ) ;
#176 = PERSON_AND_ORGANIZATION ( #77, #164 ) ;
#177 = EDGE_CURVE ( 'NONE', #240, #110, #6, .T. ) ;
#178 = DIRECTION ( 'NONE',  ( 1.000000000000000000, 0.000000000000000000, 0.000000000000000000 ) ) ;
#179 = CC_DESIGN_DATE_AND_TIME_ASSIGNMENT ( #229, #161, ( #200 ) ) ;
#180 =( LENGTH_UNIT ( ) NAMED_UNIT ( * ) SI_UNIT ( .MILLI., .METRE. ) );
#181 = AXIS2_PLACEMENT_3D ( 'NONE', #19, #150, #173 ) ;
#182 = DATE_TIME_ROLE ( 'creation_date' ) ;
#183 = APPROVAL ( #121, 'NEURÈENÝ' ) ;
#184 = ORIENTED_EDGE ( 'NONE', *, *, #105, .T. ) ;
#185 = ORIENTED_EDGE ( 'NONE', *, *, #234, .F. ) ;
#186 = PERSON_AND_ORGANIZATION_ROLE ( 'classification_officer' ) ;
#187 = ORIENTED_EDGE ( 'NONE', *, *, #246, .F. ) ;
#188 = CIRCLE ( 'NONE', #151, 4.000000000000000000 ) ;
#189 = EDGE_LOOP ( 'NONE', ( #223, #144, #68, #168 ) ) ;
#190 = DIRECTION ( 'NONE',  ( 0.000000000000000000, 0.000000000000000000, 1.000000000000000000 ) ) ;
#191 = DIRECTION ( 'NONE',  ( -0.000000000000000000, -0.000000000000000000, -1.000000000000000000 ) ) ;
#192 = LINE ( 'NONE', #96, #66 ) ;
#193 = CLOSED_SHELL ( 'NONE', ( #160, #99, #148, #57, #22, #18, #52 ) ) ;
#194 = DIRECTION ( 'NONE',  ( 1.000000000000000000, 0.000000000000000000, 0.000000000000000000 ) ) ;
#195 = CARTESIAN_POINT ( 'NONE',  ( 0.000000000000000000, 0.000000000000000000, 0.000000000000000000 ) ) ;
#196 = EDGE_CURVE ( 'NONE', #14, #240, #64, .T. ) ;
#197 = DIRECTION ( 'NONE',  ( 0.000000000000000000, 0.000000000000000000, 1.000000000000000000 ) ) ;
#198 = PRODUCT_DEFINITION ( 'NEZNÁMÝ', '', #42, #75 ) ;
#199 = MECHANICAL_CONTEXT ( 'NONE', #217, 'mechanical' ) ;
#200 = SECURITY_CLASSIFICATION ( '', '', #142 ) ;
#201 = PERSON_AND_ORGANIZATION ( #77, #164 ) ;
#202 = ORIENTED_EDGE ( 'NONE', *, *, #61, .T. ) ;
#203 = CARTESIAN_POINT ( 'NONE',  ( 0.000000000000000000, 0.000000000000000000, 160.0000000000000000 ) ) ;
#204 = ORIENTED_EDGE ( 'NONE', *, *, #112, .F. ) ;
#205 = EDGE_LOOP ( 'NONE', ( #245, #67, #147, #204 ) ) ;
#206 = ORIENTED_EDGE ( 'NONE', *, *, #114, .T. ) ;
#207 = CIRCLE ( 'NONE', #36, 4.000000000000000000 ) ;
#208 = PLANE ( 'NONE',  #181 ) ;
#209 = LOCAL_TIME ( 17, 8, 40.00000000000000000, #128 ) ;
#210 = FACE_OUTER_BOUND ( 'NONE', #221, .T. ) ;
#211 = DIRECTION ( 'NONE',  ( 0.000000000000000000, 0.000000000000000000, 1.000000000000000000 ) ) ;
#212 = CARTESIAN_POINT ( 'NONE',  ( 2.100000000000000089, 2.571758278209441957E-16, 160.0000000000000000 ) ) ;
#213 = DIRECTION ( 'NONE',  ( 0.000000000000000000, 0.000000000000000000, 1.000000000000000000 ) ) ;
#214 = AXIS2_PLACEMENT_3D ( 'NONE', #236, #253, #235 ) ;
#215 =( GEOMETRIC_REPRESENTATION_CONTEXT ( 3 ) GLOBAL_UNCERTAINTY_ASSIGNED_CONTEXT ( ( #250 ) ) GLOBAL_UNIT_ASSIGNED_CONTEXT ( ( #180, #3, #44 ) ) REPRESENTATION_CONTEXT ( 'NONE', 'WORKASPACE' ) );
#216 = DIRECTION ( 'NONE',  ( 0.000000000000000000, 0.000000000000000000, 1.000000000000000000 ) ) ;
#217 = APPLICATION_CONTEXT ( 'configuration controlled 3d designs of mechanical parts and assemblies' ) ;
#218 = DIRECTION ( 'NONE',  ( -0.000000000000000000, -0.000000000000000000, -1.000000000000000000 ) ) ;
#219 = PERSON_AND_ORGANIZATION ( #77, #164 ) ;
#220 = AXIS2_PLACEMENT_3D ( 'NONE', #171, #93, #92 ) ;
#221 = EDGE_LOOP ( 'NONE', ( #50, #48, #184, #65 ) ) ;
#222 = CC_DESIGN_PERSON_AND_ORGANIZATION_ASSIGNMENT ( #201, #186, ( #200 ) ) ;
#223 = ORIENTED_EDGE ( 'NONE', *, *, #196, .F. ) ;
#224 = CALENDAR_DATE ( 2023, 13, 2 ) ;
#225 = DIRECTION ( 'NONE',  ( -0.000000000000000000, -0.000000000000000000, -1.000000000000000000 ) ) ;
#226 = VECTOR ( 'NONE', #191, 1000.000000000000000 ) ;
#227 = LOCAL_TIME ( 17, 8, 40.00000000000000000, #239 ) ;
#228 = EDGE_LOOP ( 'NONE', ( #202, #127 ) ) ;
#229 = DATE_AND_TIME ( #32, #209 ) ;
#230 = ORIENTED_EDGE ( 'NONE', *, *, #159, .F. ) ;
#231 = CARTESIAN_POINT ( 'NONE',  ( 0.000000000000000000, 0.000000000000000000, 160.0000000000000000 ) ) ;
#232 = CARTESIAN_POINT ( 'NONE',  ( 0.000000000000000000, 0.000000000000000000, 3.000000000000000000 ) ) ;
#233 = PLANE ( 'NONE',  #9 ) ;
#234 = EDGE_CURVE ( 'NONE', #110, #240, #207, .T. ) ;
#235 = DIRECTION ( 'NONE',  ( 1.000000000000000000, 0.000000000000000000, 0.000000000000000000 ) ) ;
#236 = CARTESIAN_POINT ( 'NONE',  ( 0.000000000000000000, 0.000000000000000000, 160.0000000000000000 ) ) ;
#237 = AXIS2_PLACEMENT_3D ( 'NONE', #73, #56, #194 ) ;
#238 = COORDINATED_UNIVERSAL_TIME_OFFSET ( 1, 0, .AHEAD. ) ;
#239 = COORDINATED_UNIVERSAL_TIME_OFFSET ( 1, 0, .AHEAD. ) ;
#240 = VERTEX_POINT ( 'NONE', #7 ) ;
#241 = CC_DESIGN_APPROVAL ( #41, ( #200 ) ) ;
#242 = EDGE_LOOP ( 'NONE', ( #187, #165, #145, #49 ) ) ;
#243 = APPROVAL_DATE_TIME ( #167, #183 ) ;
#244 = COORDINATED_UNIVERSAL_TIME_OFFSET ( 1, 0, .AHEAD. ) ;
#245 = ORIENTED_EDGE ( 'NONE', *, *, #114, .F. ) ;
#246 = EDGE_CURVE ( 'NONE', #33, #90, #46, .T. ) ;
#247 = AXIS2_PLACEMENT_3D ( 'NONE', #94, #190, #118 ) ;
#248 = VERTEX_POINT ( 'NONE', #81 ) ;
#249 = CARTESIAN_POINT ( 'NONE',  ( 0.000000000000000000, 0.000000000000000000, 160.0000000000000000 ) ) ;
#250 = UNCERTAINTY_MEASURE_WITH_UNIT (LENGTH_MEASURE( 1.000000000000000082E-05 ), #180, 'distance_accuracy_value', 'NONE');
#251 = CARTESIAN_POINT ( 'NONE',  ( 0.000000000000000000, 0.000000000000000000, 3.000000000000000000 ) ) ;
#252 = PRODUCT_RELATED_PRODUCT_CATEGORY ( 'detail', '', ( #122 ) ) ;
#253 = DIRECTION ( 'NONE',  ( 0.000000000000000000, 0.000000000000000000, 1.000000000000000000 ) ) ;
#254 = DIRECTION ( 'NONE',  ( -0.000000000000000000, -0.000000000000000000, -1.000000000000000000 ) ) ;
#255 = LINE ( 'NONE', #38, #226 ) ;
ENDSEC;
END-ISO-10303-21;
