ISO-10303-21;
HEADER;
FILE_DESCRIPTION (( 'STEP AP203' ),
    '1' );
FILE_NAME ('0f24.STEP',
    '2023-02-13T13:14:09',
    ( '' ),
    ( '' ),
    'SwSTEP 2.0',
    'SolidWorks 2019',
    '' );
FILE_SCHEMA (( 'CONFIG_CONTROL_DESIGN' ));
ENDSEC;

DATA;
#1 = DIRECTION ( 'NONE',  ( 0.000000000000000000, 0.000000000000000000, 1.000000000000000000 ) ) ;
#2 = AXIS2_PLACEMENT_3D ( 'NONE', #17, #109, #184 ) ;
#3 = LINE ( 'NONE', #96, #164 ) ;
#4 = APPLICATION_PROTOCOL_DEFINITION ( 'international standard', 'config_control_design', 1994, #63 ) ;
#5 = LINE ( 'NONE', #46, #232 ) ;
#6 = PERSON_AND_ORGANIZATION ( #193, #229 ) ;
#7 = CARTESIAN_POINT ( 'NONE',  ( 8.000000000000000000, 9.797174393178825657E-16, 5.000000000000000000 ) ) ;
#8 = PERSON_AND_ORGANIZATION ( #193, #229 ) ;
#9 = AXIS2_PLACEMENT_3D ( 'NONE', #243, #67, #40 ) ;
#10 = DATE_TIME_ROLE ( 'classification_date' ) ;
#11 = SECURITY_CLASSIFICATION ( '', '', #160 ) ;
#12 = AXIS2_PLACEMENT_3D ( 'NONE', #245, #22, #28 ) ;
#13 = ADVANCED_FACE ( 'NONE', ( #208, #182 ), #253, .T. ) ;
#14 = ADVANCED_FACE ( 'NONE', ( #153 ), #205, .F. ) ;
#15 = CC_DESIGN_SECURITY_CLASSIFICATION ( #11, ( #52 ) ) ;
#16 = ORIENTED_EDGE ( 'NONE', *, *, #180, .T. ) ;
#17 = CARTESIAN_POINT ( 'NONE',  ( 0.000000000000000000, 0.000000000000000000, 0.000000000000000000 ) ) ;
#18 = AXIS2_PLACEMENT_3D ( 'NONE', #64, #251, #36 ) ;
#19 = LOCAL_TIME ( 14, 14, 9.000000000000000000, #247 ) ;
#20 = CC_DESIGN_PERSON_AND_ORGANIZATION_ASSIGNMENT ( #51, #147, ( #11 ) ) ;
#21 = ORIENTED_EDGE ( 'NONE', *, *, #209, .F. ) ;
#22 = DIRECTION ( 'NONE',  ( 0.000000000000000000, 0.000000000000000000, 1.000000000000000000 ) ) ;
#23 = ADVANCED_FACE ( 'NONE', ( #152 ), #223, .T. ) ;
#24 = APPROVAL_DATE_TIME ( #48, #218 ) ;
#25 = DIRECTION ( 'NONE',  ( 0.000000000000000000, 0.000000000000000000, 1.000000000000000000 ) ) ;
#26 = CYLINDRICAL_SURFACE ( 'NONE', #221, 8.000000000000000000 ) ;
#27 = EDGE_CURVE ( 'NONE', #241, #149, #183, .T. ) ;
#28 = DIRECTION ( 'NONE',  ( 1.000000000000000000, 0.000000000000000000, 0.000000000000000000 ) ) ;
#29 = PERSON_AND_ORGANIZATION ( #193, #229 ) ;
#30 = CALENDAR_DATE ( 2023, 13, 2 ) ;
#31 = EDGE_CURVE ( 'NONE', #186, #241, #5, .T. ) ;
#32 = ADVANCED_BREP_SHAPE_REPRESENTATION ( '0f24', ( #227, #170 ), #185 ) ;
#33 = EDGE_CURVE ( 'NONE', #61, #186, #62, .T. ) ;
#34 = PERSON_AND_ORGANIZATION ( #193, #229 ) ;
#35 = ORIENTED_EDGE ( 'NONE', *, *, #33, .F. ) ;
#36 = DIRECTION ( 'NONE',  ( 1.000000000000000000, 0.000000000000000000, -0.000000000000000000 ) ) ;
#37 = ORIENTED_EDGE ( 'NONE', *, *, #143, .F. ) ;
#38 = VERTEX_POINT ( 'NONE', #211 ) ;
#39 = ORIENTED_EDGE ( 'NONE', *, *, #27, .F. ) ;
#40 = DIRECTION ( 'NONE',  ( -1.000000000000000000, 0.000000000000000000, 0.000000000000000000 ) ) ;
#41 = CARTESIAN_POINT ( 'NONE',  ( 0.000000000000000000, 0.000000000000000000, 5.000000000000000000 ) ) ;
#42 = CC_DESIGN_DATE_AND_TIME_ASSIGNMENT ( #125, #10, ( #11 ) ) ;
#43 = DIRECTION ( 'NONE',  ( 1.000000000000000000, 0.000000000000000000, 0.000000000000000000 ) ) ;
#44 = AXIS2_PLACEMENT_3D ( 'NONE', #74, #230, #47 ) ;
#45 = CARTESIAN_POINT ( 'NONE',  ( -8.000000000000000000, 0.000000000000000000, 5.000000000000000000 ) ) ;
#46 = CARTESIAN_POINT ( 'NONE',  ( -8.000000000000000000, 0.000000000000000000, 5.000000000000000000 ) ) ;
#47 = DIRECTION ( 'NONE',  ( 1.000000000000000000, 0.000000000000000000, 0.000000000000000000 ) ) ;
#48 = DATE_AND_TIME ( #159, #19 ) ;
#49 = DIRECTION ( 'NONE',  ( -0.000000000000000000, -0.000000000000000000, -1.000000000000000000 ) ) ;
#50 = APPROVAL_ROLE ( '' ) ;
#51 = PERSON_AND_ORGANIZATION ( #193, #229 ) ;
#52 = PRODUCT_DEFINITION_FORMATION_WITH_SPECIFIED_SOURCE ( 'LIBOVOLNÝ', '', #75, .NOT_KNOWN. ) ;
#53 = EDGE_CURVE ( 'NONE', #203, #206, #104, .T. ) ;
#54 = APPROVAL ( #237, 'NEURÈENÝ' ) ;
#55 = UNCERTAINTY_MEASURE_WITH_UNIT (LENGTH_MEASURE( 1.000000000000000082E-05 ), #169, 'distance_accuracy_value', 'NONE');
#56 = DIRECTION ( 'NONE',  ( -0.000000000000000000, -0.000000000000000000, -1.000000000000000000 ) ) ;
#57 = EDGE_LOOP ( 'NONE', ( #126, #112 ) ) ;
#58 = APPROVAL_ROLE ( '' ) ;
#59 = ORIENTED_EDGE ( 'NONE', *, *, #27, .T. ) ;
#60 = ORIENTED_EDGE ( 'NONE', *, *, #101, .F. ) ;
#61 = VERTEX_POINT ( 'NONE', #7 ) ;
#62 = CIRCLE ( 'NONE', #12, 8.000000000000000000 ) ;
#63 = APPLICATION_CONTEXT ( 'configuration controlled 3d designs of mechanical parts and assemblies' ) ;
#64 = CARTESIAN_POINT ( 'NONE',  ( 0.000000000000000000, 0.000000000000000000, 5.000000000000000000 ) ) ;
#65 = ADVANCED_FACE ( 'NONE', ( #191 ), #194, .T. ) ;
#66 =( NAMED_UNIT ( * ) PLANE_ANGLE_UNIT ( ) SI_UNIT ( $, .RADIAN. ) );
#67 = DIRECTION ( 'NONE',  ( -0.000000000000000000, -0.000000000000000000, -1.000000000000000000 ) ) ;
#68 = EDGE_CURVE ( 'NONE', #206, #203, #252, .T. ) ;
#69 = AXIS2_PLACEMENT_3D ( 'NONE', #137, #144, #213 ) ;
#70 = CYLINDRICAL_SURFACE ( 'NONE', #190, 5.250000000000000000 ) ;
#71 = APPROVAL_PERSON_ORGANIZATION ( #99, #218, #50 ) ;
#72 = PERSON_AND_ORGANIZATION ( #193, #229 ) ;
#73 = APPROVAL ( #231, 'NEURÈENÝ' ) ;
#74 = CARTESIAN_POINT ( 'NONE',  ( 0.000000000000000000, 0.000000000000000000, 0.000000000000000000 ) ) ;
#75 = PRODUCT ( '0f24', '0f24', '', ( #120 ) ) ;
#76 = DIRECTION ( 'NONE',  ( -0.000000000000000000, -0.000000000000000000, -1.000000000000000000 ) ) ;
#77 = APPLICATION_PROTOCOL_DEFINITION ( 'international standard', 'config_control_design', 1994, #127 ) ;
#78 = PERSON_AND_ORGANIZATION_ROLE ( 'design_supplier' ) ;
#79 = CLOSED_SHELL ( 'NONE', ( #141, #86, #179, #13, #14, #65, #23 ) ) ;
#80 = ORIENTED_EDGE ( 'NONE', *, *, #68, .F. ) ;
#81 = AXIS2_PLACEMENT_3D ( 'NONE', #41, #92, #136 ) ;
#82 = EDGE_LOOP ( 'NONE', ( #167, #222, #110, #37 ) ) ;
#83 = CC_DESIGN_PERSON_AND_ORGANIZATION_ASSIGNMENT ( #8, #78, ( #52 ) ) ;
#84 = EDGE_LOOP ( 'NONE', ( #21, #80, #165, #16 ) ) ;
#85 = CARTESIAN_POINT ( 'NONE',  ( -8.000000000000000000, 0.000000000000000000, 0.000000000000000000 ) ) ;
#86 = ADVANCED_FACE ( 'NONE', ( #173 ), #233, .T. ) ;
#87 = EDGE_CURVE ( 'NONE', #38, #107, #124, .T. ) ;
#88 = ORIENTED_EDGE ( 'NONE', *, *, #161, .T. ) ;
#89 = LINE ( 'NONE', #113, #114 ) ;
#90 = EDGE_LOOP ( 'NONE', ( #129, #163 ) ) ;
#91 = DIRECTION ( 'NONE',  ( 1.000000000000000000, 0.000000000000000000, 0.000000000000000000 ) ) ;
#92 = DIRECTION ( 'NONE',  ( 0.000000000000000000, 0.000000000000000000, 1.000000000000000000 ) ) ;
#93 = DIRECTION ( 'NONE',  ( 1.000000000000000000, 0.000000000000000000, 0.000000000000000000 ) ) ;
#94 = COORDINATED_UNIVERSAL_TIME_OFFSET ( 1, 0, .AHEAD. ) ;
#95 = PRODUCT_DEFINITION_SHAPE ( 'NONE', 'NONE',  #242 ) ;
#96 = CARTESIAN_POINT ( 'NONE',  ( -5.250000000000000000, 0.000000000000000000, 125.0000000000000000 ) ) ;
#97 = APPROVAL_PERSON_ORGANIZATION ( #72, #73, #142 ) ;
#98 = APPROVAL_PERSON_ORGANIZATION ( #34, #54, #58 ) ;
#99 = PERSON_AND_ORGANIZATION ( #193, #229 ) ;
#100 = PERSON_AND_ORGANIZATION_ROLE ( 'creator' ) ;
#101 = EDGE_CURVE ( 'NONE', #186, #61, #108, .T. ) ;
#102 = DIRECTION ( 'NONE',  ( 1.000000000000000000, 0.000000000000000000, -0.000000000000000000 ) ) ;
#103 = CC_DESIGN_PERSON_AND_ORGANIZATION_ASSIGNMENT ( #6, #100, ( #52 ) ) ;
#104 = CIRCLE ( 'NONE', #249, 5.250000000000000000 ) ;
#105 = LOCAL_TIME ( 14, 14, 9.000000000000000000, #217 ) ;
#106 = CARTESIAN_POINT ( 'NONE',  ( -5.250000000000000000, 0.000000000000000000, 125.0000000000000000 ) ) ;
#107 = VERTEX_POINT ( 'NONE', #174 ) ;
#108 = CIRCLE ( 'NONE', #162, 8.000000000000000000 ) ;
#109 = DIRECTION ( 'NONE',  ( 0.000000000000000000, 0.000000000000000000, 1.000000000000000000 ) ) ;
#110 = ORIENTED_EDGE ( 'NONE', *, *, #87, .T. ) ;
#111 =( NAMED_UNIT ( * ) SI_UNIT ( $, .STERADIAN. ) SOLID_ANGLE_UNIT ( ) );
#112 = ORIENTED_EDGE ( 'NONE', *, *, #53, .T. ) ;
#113 = CARTESIAN_POINT ( 'NONE',  ( 5.250000000000000000, 6.429395695523604153E-16, 125.0000000000000000 ) ) ;
#114 = VECTOR ( 'NONE', #132, 1000.000000000000000 ) ;
#115 = DIRECTION ( 'NONE',  ( 0.000000000000000000, 0.000000000000000000, 1.000000000000000000 ) ) ;
#116 = CARTESIAN_POINT ( 'NONE',  ( 0.000000000000000000, 0.000000000000000000, 0.000000000000000000 ) ) ;
#117 = PRODUCT_RELATED_PRODUCT_CATEGORY ( 'detail', '', ( #75 ) ) ;
#118 = PERSON_AND_ORGANIZATION_ROLE ( 'creator' ) ;
#119 = DIRECTION ( 'NONE',  ( -1.000000000000000000, 0.000000000000000000, 0.000000000000000000 ) ) ;
#120 = MECHANICAL_CONTEXT ( 'NONE', #127, 'mechanical' ) ;
#121 = CARTESIAN_POINT ( 'NONE',  ( 0.000000000000000000, 0.000000000000000000, 5.000000000000000000 ) ) ;
#122 = CARTESIAN_POINT ( 'NONE',  ( 0.000000000000000000, 0.000000000000000000, 125.0000000000000000 ) ) ;
#123 = CALENDAR_DATE ( 2023, 13, 2 ) ;
#124 = CIRCLE ( 'NONE', #69, 5.250000000000000000 ) ;
#125 = DATE_AND_TIME ( #30, #105 ) ;
#126 = ORIENTED_EDGE ( 'NONE', *, *, #68, .T. ) ;
#127 = APPLICATION_CONTEXT ( 'configuration controlled 3d designs of mechanical parts and assemblies' ) ;
#128 = ORIENTED_EDGE ( 'NONE', *, *, #224, .T. ) ;
#129 = ORIENTED_EDGE ( 'NONE', *, *, #180, .F. ) ;
#130 = CC_DESIGN_APPROVAL ( #218, ( #242 ) ) ;
#131 = EDGE_LOOP ( 'NONE', ( #39, #133 ) ) ;
#132 = DIRECTION ( 'NONE',  ( -0.000000000000000000, -0.000000000000000000, -1.000000000000000000 ) ) ;
#133 = ORIENTED_EDGE ( 'NONE', *, *, #161, .F. ) ;
#134 = AXIS2_PLACEMENT_3D ( 'NONE', #255, #25, #91 ) ;
#135 = CALENDAR_DATE ( 2023, 13, 2 ) ;
#136 = DIRECTION ( 'NONE',  ( 1.000000000000000000, 0.000000000000000000, 0.000000000000000000 ) ) ;
#137 = CARTESIAN_POINT ( 'NONE',  ( 0.000000000000000000, 0.000000000000000000, 5.000000000000000000 ) ) ;
#138 = CARTESIAN_POINT ( 'NONE',  ( 5.250000000000000000, 6.429395695523604153E-16, 125.0000000000000000 ) ) ;
#139 = DIRECTION ( 'NONE',  ( 0.000000000000000000, 0.000000000000000000, 1.000000000000000000 ) ) ;
#140 = FACE_OUTER_BOUND ( 'NONE', #254, .T. ) ;
#141 = ADVANCED_FACE ( 'NONE', ( #196 ), #70, .T. ) ;
#142 = APPROVAL_ROLE ( '' ) ;
#143 = EDGE_CURVE ( 'NONE', #206, #107, #3, .T. ) ;
#144 = DIRECTION ( 'NONE',  ( 0.000000000000000000, 0.000000000000000000, 1.000000000000000000 ) ) ;
#145 = LOCAL_TIME ( 14, 14, 9.000000000000000000, #178 ) ;
#146 = DATE_TIME_ROLE ( 'creation_date' ) ;
#147 = PERSON_AND_ORGANIZATION_ROLE ( 'classification_officer' ) ;
#148 = CARTESIAN_POINT ( 'NONE',  ( 0.000000000000000000, 0.000000000000000000, 0.000000000000000000 ) ) ;
#149 = VERTEX_POINT ( 'NONE', #246 ) ;
#150 = CC_DESIGN_PERSON_AND_ORGANIZATION_ASSIGNMENT ( #197, #195, ( #75 ) ) ;
#151 = ORIENTED_EDGE ( 'NONE', *, *, #31, .T. ) ;
#152 = FACE_OUTER_BOUND ( 'NONE', #57, .T. ) ;
#153 = FACE_OUTER_BOUND ( 'NONE', #131, .T. ) ;
#154 = DIRECTION ( 'NONE',  ( 0.000000000000000000, 0.000000000000000000, 1.000000000000000000 ) ) ;
#155 = DIRECTION ( 'NONE',  ( -1.000000000000000000, 0.000000000000000000, 0.000000000000000000 ) ) ;
#156 = CIRCLE ( 'NONE', #44, 8.000000000000000000 ) ;
#157 = CARTESIAN_POINT ( 'NONE',  ( 0.000000000000000000, 0.000000000000000000, 125.0000000000000000 ) ) ;
#158 = DATE_AND_TIME ( #175, #176 ) ;
#159 = CALENDAR_DATE ( 2023, 13, 2 ) ;
#160 = SECURITY_CLASSIFICATION_LEVEL ( 'unclassified' ) ;
#161 = EDGE_CURVE ( 'NONE', #149, #241, #156, .T. ) ;
#162 = AXIS2_PLACEMENT_3D ( 'NONE', #192, #1, #93 ) ;
#163 = ORIENTED_EDGE ( 'NONE', *, *, #87, .F. ) ;
#164 = VECTOR ( 'NONE', #177, 1000.000000000000000 ) ;
#165 = ORIENTED_EDGE ( 'NONE', *, *, #143, .T. ) ;
#166 = CC_DESIGN_PERSON_AND_ORGANIZATION_ASSIGNMENT ( #29, #118, ( #242 ) ) ;
#167 = ORIENTED_EDGE ( 'NONE', *, *, #53, .F. ) ;
#168 = ORIENTED_EDGE ( 'NONE', *, *, #31, .F. ) ;
#169 =( LENGTH_UNIT ( ) NAMED_UNIT ( * ) SI_UNIT ( .MILLI., .METRE. ) );
#170 = AXIS2_PLACEMENT_3D ( 'NONE', #148, #139, #248 ) ;
#171 = EDGE_LOOP ( 'NONE', ( #35, #128, #88, #168 ) ) ;
#172 = LINE ( 'NONE', #181, #234 ) ;
#173 = FACE_OUTER_BOUND ( 'NONE', #171, .T. ) ;
#174 = CARTESIAN_POINT ( 'NONE',  ( -5.250000000000000000, 0.000000000000000000, 5.000000000000000000 ) ) ;
#175 = CALENDAR_DATE ( 2023, 13, 2 ) ;
#176 = LOCAL_TIME ( 14, 14, 9.000000000000000000, #94 ) ;
#177 = DIRECTION ( 'NONE',  ( -0.000000000000000000, -0.000000000000000000, -1.000000000000000000 ) ) ;
#178 = COORDINATED_UNIVERSAL_TIME_OFFSET ( 1, 0, .AHEAD. ) ;
#179 = ADVANCED_FACE ( 'NONE', ( #140 ), #26, .T. ) ;
#180 = EDGE_CURVE ( 'NONE', #107, #38, #235, .T. ) ;
#181 = CARTESIAN_POINT ( 'NONE',  ( 8.000000000000000000, 9.797174393178825657E-16, 5.000000000000000000 ) ) ;
#182 = FACE_OUTER_BOUND ( 'NONE', #239, .T. ) ;
#183 = CIRCLE ( 'NONE', #201, 8.000000000000000000 ) ;
#184 = DIRECTION ( 'NONE',  ( 1.000000000000000000, 0.000000000000000000, -0.000000000000000000 ) ) ;
#185 =( GEOMETRIC_REPRESENTATION_CONTEXT ( 3 ) GLOBAL_UNCERTAINTY_ASSIGNED_CONTEXT ( ( #55 ) ) GLOBAL_UNIT_ASSIGNED_CONTEXT ( ( #169, #66, #111 ) ) REPRESENTATION_CONTEXT ( 'NONE', 'WORKASPACE' ) );
#186 = VERTEX_POINT ( 'NONE', #45 ) ;
#187 = ORIENTED_EDGE ( 'NONE', *, *, #224, .F. ) ;
#188 = ORIENTED_EDGE ( 'NONE', *, *, #101, .T. ) ;
#189 = DIRECTION ( 'NONE',  ( -0.000000000000000000, -0.000000000000000000, -1.000000000000000000 ) ) ;
#190 = AXIS2_PLACEMENT_3D ( 'NONE', #215, #49, #119 ) ;
#191 = FACE_OUTER_BOUND ( 'NONE', #84, .T. ) ;
#192 = CARTESIAN_POINT ( 'NONE',  ( 0.000000000000000000, 0.000000000000000000, 5.000000000000000000 ) ) ;
#193 = PERSON ( 'NEURÈENÝ', 'NEURÈENÝ', 'NEURÈENÝ', ('NEURÈENÝ'), ('NEURÈENÝ'), ('NEURÈENÝ') ) ;
#194 = CYLINDRICAL_SURFACE ( 'NONE', #9, 5.250000000000000000 ) ;
#195 = PERSON_AND_ORGANIZATION_ROLE ( 'design_owner' ) ;
#196 = FACE_OUTER_BOUND ( 'NONE', #82, .T. ) ;
#197 = PERSON_AND_ORGANIZATION ( #193, #229 ) ;
#198 = APPROVAL_DATE_TIME ( #216, #73 ) ;
#199 = AXIS2_PLACEMENT_3D ( 'NONE', #121, #244, #155 ) ;
#200 = APPROVAL_STATUS ( 'not_yet_approved' ) ;
#201 = AXIS2_PLACEMENT_3D ( 'NONE', #116, #214, #226 ) ;
#202 = CC_DESIGN_DATE_AND_TIME_ASSIGNMENT ( #158, #146, ( #242 ) ) ;
#203 = VERTEX_POINT ( 'NONE', #138 ) ;
#204 = COORDINATED_UNIVERSAL_TIME_OFFSET ( 1, 0, .AHEAD. ) ;
#205 = PLANE ( 'NONE',  #2 ) ;
#206 = VERTEX_POINT ( 'NONE', #106 ) ;
#207 = CC_DESIGN_APPROVAL ( #73, ( #52 ) ) ;
#208 = FACE_BOUND ( 'NONE', #90, .T. ) ;
#209 = EDGE_CURVE ( 'NONE', #203, #38, #89, .T. ) ;
#210 = DATE_AND_TIME ( #135, #250 ) ;
#211 = CARTESIAN_POINT ( 'NONE',  ( 5.250000000000000000, 6.429395695523604153E-16, 5.000000000000000000 ) ) ;
#212 = SHAPE_DEFINITION_REPRESENTATION ( #95, #32 ) ;
#213 = DIRECTION ( 'NONE',  ( 1.000000000000000000, 0.000000000000000000, 0.000000000000000000 ) ) ;
#214 = DIRECTION ( 'NONE',  ( 0.000000000000000000, 0.000000000000000000, 1.000000000000000000 ) ) ;
#215 = CARTESIAN_POINT ( 'NONE',  ( 0.000000000000000000, 0.000000000000000000, 125.0000000000000000 ) ) ;
#216 = DATE_AND_TIME ( #123, #145 ) ;
#217 = COORDINATED_UNIVERSAL_TIME_OFFSET ( 1, 0, .AHEAD. ) ;
#218 = APPROVAL ( #200, 'NEURÈENÝ' ) ;
#219 = AXIS2_PLACEMENT_3D ( 'NONE', #157, #154, #102 ) ;
#220 = DESIGN_CONTEXT ( 'detailed design', #63, 'design' ) ;
#221 = AXIS2_PLACEMENT_3D ( 'NONE', #225, #189, #228 ) ;
#222 = ORIENTED_EDGE ( 'NONE', *, *, #209, .T. ) ;
#223 = PLANE ( 'NONE',  #219 ) ;
#224 = EDGE_CURVE ( 'NONE', #61, #149, #172, .T. ) ;
#225 = CARTESIAN_POINT ( 'NONE',  ( 0.000000000000000000, 0.000000000000000000, 5.000000000000000000 ) ) ;
#226 = DIRECTION ( 'NONE',  ( 1.000000000000000000, 0.000000000000000000, 0.000000000000000000 ) ) ;
#227 = MANIFOLD_SOLID_BREP ( 'Pøidat vysunutím3', #79 ) ;
#228 = DIRECTION ( 'NONE',  ( -1.000000000000000000, 0.000000000000000000, 0.000000000000000000 ) ) ;
#229 = ORGANIZATION ( 'NEURÈENÝ', 'NEURÈENÝ', '' ) ;
#230 = DIRECTION ( 'NONE',  ( 0.000000000000000000, 0.000000000000000000, 1.000000000000000000 ) ) ;
#231 = APPROVAL_STATUS ( 'not_yet_approved' ) ;
#232 = VECTOR ( 'NONE', #76, 1000.000000000000000 ) ;
#233 = CYLINDRICAL_SURFACE ( 'NONE', #199, 8.000000000000000000 ) ;
#234 = VECTOR ( 'NONE', #56, 1000.000000000000000 ) ;
#235 = CIRCLE ( 'NONE', #81, 5.250000000000000000 ) ;
#236 = CC_DESIGN_APPROVAL ( #54, ( #11 ) ) ;
#237 = APPROVAL_STATUS ( 'not_yet_approved' ) ;
#238 = ORIENTED_EDGE ( 'NONE', *, *, #33, .T. ) ;
#239 = EDGE_LOOP ( 'NONE', ( #188, #238 ) ) ;
#240 = APPROVAL_DATE_TIME ( #210, #54 ) ;
#241 = VERTEX_POINT ( 'NONE', #85 ) ;
#242 = PRODUCT_DEFINITION ( 'NEZNÁMÝ', '', #52, #220 ) ;
#243 = CARTESIAN_POINT ( 'NONE',  ( 0.000000000000000000, 0.000000000000000000, 125.0000000000000000 ) ) ;
#244 = DIRECTION ( 'NONE',  ( -0.000000000000000000, -0.000000000000000000, -1.000000000000000000 ) ) ;
#245 = CARTESIAN_POINT ( 'NONE',  ( 0.000000000000000000, 0.000000000000000000, 5.000000000000000000 ) ) ;
#246 = CARTESIAN_POINT ( 'NONE',  ( 8.000000000000000000, 9.797174393178825657E-16, 0.000000000000000000 ) ) ;
#247 = COORDINATED_UNIVERSAL_TIME_OFFSET ( 1, 0, .AHEAD. ) ;
#248 = DIRECTION ( 'NONE',  ( 1.000000000000000000, 0.000000000000000000, 0.000000000000000000 ) ) ;
#249 = AXIS2_PLACEMENT_3D ( 'NONE', #122, #115, #43 ) ;
#250 = LOCAL_TIME ( 14, 14, 9.000000000000000000, #204 ) ;
#251 = DIRECTION ( 'NONE',  ( 0.000000000000000000, 0.000000000000000000, 1.000000000000000000 ) ) ;
#252 = CIRCLE ( 'NONE', #134, 5.250000000000000000 ) ;
#253 = PLANE ( 'NONE',  #18 ) ;
#254 = EDGE_LOOP ( 'NONE', ( #187, #60, #151, #59 ) ) ;
#255 = CARTESIAN_POINT ( 'NONE',  ( 0.000000000000000000, 0.000000000000000000, 125.0000000000000000 ) ) ;
ENDSEC;
END-ISO-10303-21;
