ISO-10303-21;
HEADER;
FILE_DESCRIPTION (( 'STEP AP203' ),
    '1' );
FILE_NAME ('9e43.STEP',
    '2023-02-13T15:48:29',
    ( '' ),
    ( '' ),
    'SwSTEP 2.0',
    'SolidWorks 2019',
    '' );
FILE_SCHEMA (( 'CONFIG_CONTROL_DESIGN' ));
ENDSEC;

DATA;
#1 = CARTESIAN_POINT ( 'NONE',  ( 0.000000000000000000, 0.000000000000000000, 3.000000000000000000 ) ) ;
#2 =( NAMED_UNIT ( * ) PLANE_ANGLE_UNIT ( ) SI_UNIT ( $, .RADIAN. ) );
#3 = DIRECTION ( 'NONE',  ( 0.000000000000000000, 0.000000000000000000, 1.000000000000000000 ) ) ;
#4 = ORIENTED_EDGE ( 'NONE', *, *, #143, .T. ) ;
#5 = CC_DESIGN_SECURITY_CLASSIFICATION ( #57, ( #168 ) ) ;
#6 = ADVANCED_BREP_SHAPE_REPRESENTATION ( '9e43', ( #237, #79 ), #159 ) ;
#7 = CIRCLE ( 'NONE', #145, 5.000000000000000000 ) ;
#8 = CIRCLE ( 'NONE', #25, 2.600000000000000089 ) ;
#9 = CARTESIAN_POINT ( 'NONE',  ( 0.000000000000000000, 0.000000000000000000, 3.000000000000000000 ) ) ;
#10 = CARTESIAN_POINT ( 'NONE',  ( -5.000000000000000000, 0.000000000000000000, 3.000000000000000000 ) ) ;
#11 = CYLINDRICAL_SURFACE ( 'NONE', #117, 5.000000000000000000 ) ;
#12 = LINE ( 'NONE', #45, #228 ) ;
#13 = CARTESIAN_POINT ( 'NONE',  ( 0.000000000000000000, 0.000000000000000000, 315.0000000000000000 ) ) ;
#14 = CC_DESIGN_PERSON_AND_ORGANIZATION_ASSIGNMENT ( #70, #191, ( #57 ) ) ;
#15 = DATE_TIME_ROLE ( 'classification_date' ) ;
#16 = AXIS2_PLACEMENT_3D ( 'NONE', #31, #102, #158 ) ;
#17 = PERSON_AND_ORGANIZATION ( #69, #219 ) ;
#18 = ADVANCED_FACE ( 'NONE', ( #22 ), #38, .T. ) ;
#19 = PERSON_AND_ORGANIZATION ( #69, #219 ) ;
#20 = ORIENTED_EDGE ( 'NONE', *, *, #111, .F. ) ;
#21 = DIRECTION ( 'NONE',  ( 1.000000000000000000, 0.000000000000000000, -0.000000000000000000 ) ) ;
#22 = FACE_OUTER_BOUND ( 'NONE', #78, .T. ) ;
#23 = DIRECTION ( 'NONE',  ( 1.000000000000000000, 0.000000000000000000, 0.000000000000000000 ) ) ;
#24 = AXIS2_PLACEMENT_3D ( 'NONE', #65, #28, #179 ) ;
#25 = AXIS2_PLACEMENT_3D ( 'NONE', #34, #161, #157 ) ;
#26 = VERTEX_POINT ( 'NONE', #196 ) ;
#27 = AXIS2_PLACEMENT_3D ( 'NONE', #146, #218, #63 ) ;
#28 = DIRECTION ( 'NONE',  ( -0.000000000000000000, -0.000000000000000000, -1.000000000000000000 ) ) ;
#29 = EDGE_CURVE ( 'NONE', #197, #61, #183, .T. ) ;
#30 = DIRECTION ( 'NONE',  ( -0.000000000000000000, -0.000000000000000000, -1.000000000000000000 ) ) ;
#31 = CARTESIAN_POINT ( 'NONE',  ( 0.000000000000000000, 0.000000000000000000, 315.0000000000000000 ) ) ;
#32 = FACE_OUTER_BOUND ( 'NONE', #56, .T. ) ;
#33 = CC_DESIGN_PERSON_AND_ORGANIZATION_ASSIGNMENT ( #254, #151, ( #178 ) ) ;
#34 = CARTESIAN_POINT ( 'NONE',  ( 0.000000000000000000, 0.000000000000000000, 3.000000000000000000 ) ) ;
#35 = DATE_TIME_ROLE ( 'creation_date' ) ;
#36 = COORDINATED_UNIVERSAL_TIME_OFFSET ( 1, 0, .AHEAD. ) ;
#37 = PERSON_AND_ORGANIZATION_ROLE ( 'creator' ) ;
#38 = PLANE ( 'NONE',  #149 ) ;
#39 = CALENDAR_DATE ( 2023, 13, 2 ) ;
#40 = ORIENTED_EDGE ( 'NONE', *, *, #185, .T. ) ;
#41 = LOCAL_TIME ( 16, 48, 28.00000000000000000, #252 ) ;
#42 = CALENDAR_DATE ( 2023, 13, 2 ) ;
#43 = CARTESIAN_POINT ( 'NONE',  ( 0.000000000000000000, 0.000000000000000000, 3.000000000000000000 ) ) ;
#44 = VERTEX_POINT ( 'NONE', #95 ) ;
#45 = CARTESIAN_POINT ( 'NONE',  ( -5.000000000000000000, 0.000000000000000000, 3.000000000000000000 ) ) ;
#46 = LOCAL_TIME ( 16, 48, 28.00000000000000000, #51 ) ;
#47 = CARTESIAN_POINT ( 'NONE',  ( 2.600000000000000089, 3.184081677783118191E-16, 3.000000000000000000 ) ) ;
#48 = DIRECTION ( 'NONE',  ( -1.000000000000000000, 0.000000000000000000, 0.000000000000000000 ) ) ;
#49 = PLANE ( 'NONE',  #155 ) ;
#50 = FACE_OUTER_BOUND ( 'NONE', #59, .T. ) ;
#51 = COORDINATED_UNIVERSAL_TIME_OFFSET ( 1, 0, .AHEAD. ) ;
#52 = AXIS2_PLACEMENT_3D ( 'NONE', #13, #246, #62 ) ;
#53 = APPROVAL_ROLE ( '' ) ;
#54 = DIRECTION ( 'NONE',  ( 1.000000000000000000, 0.000000000000000000, 0.000000000000000000 ) ) ;
#55 = EDGE_CURVE ( 'NONE', #80, #92, #97, .T. ) ;
#56 = EDGE_LOOP ( 'NONE', ( #233, #190 ) ) ;
#57 = SECURITY_CLASSIFICATION ( '', '', #127 ) ;
#58 = AXIS2_PLACEMENT_3D ( 'NONE', #137, #3, #23 ) ;
#59 = EDGE_LOOP ( 'NONE', ( #94, #210, #40, #119 ) ) ;
#60 = ADVANCED_FACE ( 'NONE', ( #134 ), #172, .T. ) ;
#61 = VERTEX_POINT ( 'NONE', #68 ) ;
#62 = DIRECTION ( 'NONE',  ( 1.000000000000000000, 0.000000000000000000, 0.000000000000000000 ) ) ;
#63 = DIRECTION ( 'NONE',  ( 1.000000000000000000, 0.000000000000000000, 0.000000000000000000 ) ) ;
#64 = CLOSED_SHELL ( 'NONE', ( #236, #60, #171, #162, #130, #249, #18 ) ) ;
#65 = CARTESIAN_POINT ( 'NONE',  ( 0.000000000000000000, 0.000000000000000000, 315.0000000000000000 ) ) ;
#66 = LINE ( 'NONE', #122, #113 ) ;
#67 = CC_DESIGN_PERSON_AND_ORGANIZATION_ASSIGNMENT ( #187, #153, ( #181 ) ) ;
#68 = CARTESIAN_POINT ( 'NONE',  ( 5.000000000000000000, 6.123233995736766282E-16, 0.000000000000000000 ) ) ;
#69 = PERSON ( 'NEURÈENÝ', 'NEURÈENÝ', 'NEURÈENÝ', ('NEURÈENÝ'), ('NEURÈENÝ'), ('NEURÈENÝ') ) ;
#70 = PERSON_AND_ORGANIZATION ( #69, #219 ) ;
#71 = COORDINATED_UNIVERSAL_TIME_OFFSET ( 1, 0, .AHEAD. ) ;
#72 = ORIENTED_EDGE ( 'NONE', *, *, #209, .F. ) ;
#73 = CIRCLE ( 'NONE', #52, 2.600000000000000089 ) ;
#74 = MECHANICAL_CONTEXT ( 'NONE', #238, 'mechanical' ) ;
#75 = ORIENTED_EDGE ( 'NONE', *, *, #215, .T. ) ;
#76 = APPLICATION_PROTOCOL_DEFINITION ( 'international standard', 'config_control_design', 1994, #238 ) ;
#77 = ORIENTED_EDGE ( 'NONE', *, *, #29, .F. ) ;
#78 = EDGE_LOOP ( 'NONE', ( #99, #75 ) ) ;
#79 = AXIS2_PLACEMENT_3D ( 'NONE', #227, #255, #170 ) ;
#80 = VERTEX_POINT ( 'NONE', #47 ) ;
#81 = EDGE_CURVE ( 'NONE', #26, #80, #66, .T. ) ;
#82 = CYLINDRICAL_SURFACE ( 'NONE', #24, 2.600000000000000089 ) ;
#83 = FACE_OUTER_BOUND ( 'NONE', #176, .T. ) ;
#84 = CARTESIAN_POINT ( 'NONE',  ( -2.600000000000000089, 0.000000000000000000, 3.000000000000000000 ) ) ;
#85 = EDGE_CURVE ( 'NONE', #231, #61, #144, .T. ) ;
#86 = FACE_BOUND ( 'NONE', #240, .T. ) ;
#87 = PERSON_AND_ORGANIZATION_ROLE ( 'design_supplier' ) ;
#88 = CC_DESIGN_APPROVAL ( #138, ( #57 ) ) ;
#89 = DATE_AND_TIME ( #148, #96 ) ;
#90 = APPROVAL_STATUS ( 'not_yet_approved' ) ;
#91 = APPROVAL_ROLE ( '' ) ;
#92 = VERTEX_POINT ( 'NONE', #84 ) ;
#93 = EDGE_LOOP ( 'NONE', ( #177, #139, #114, #216 ) ) ;
#94 = ORIENTED_EDGE ( 'NONE', *, *, #85, .F. ) ;
#95 = CARTESIAN_POINT ( 'NONE',  ( -2.600000000000000089, 0.000000000000000000, 315.0000000000000000 ) ) ;
#96 = LOCAL_TIME ( 16, 48, 28.00000000000000000, #71 ) ;
#97 = CIRCLE ( 'NONE', #244, 2.600000000000000089 ) ;
#98 = CC_DESIGN_PERSON_AND_ORGANIZATION_ASSIGNMENT ( #109, #87, ( #168 ) ) ;
#99 = ORIENTED_EDGE ( 'NONE', *, *, #195, .T. ) ;
#100 = DIRECTION ( 'NONE',  ( 1.000000000000000000, 0.000000000000000000, 0.000000000000000000 ) ) ;
#101 = CARTESIAN_POINT ( 'NONE',  ( 0.000000000000000000, 0.000000000000000000, 3.000000000000000000 ) ) ;
#102 = DIRECTION ( 'NONE',  ( -0.000000000000000000, -0.000000000000000000, -1.000000000000000000 ) ) ;
#103 = VECTOR ( 'NONE', #245, 1000.000000000000000 ) ;
#104 = DIRECTION ( 'NONE',  ( -0.000000000000000000, -0.000000000000000000, -1.000000000000000000 ) ) ;
#105 = DIRECTION ( 'NONE',  ( 1.000000000000000000, 0.000000000000000000, 0.000000000000000000 ) ) ;
#106 = APPROVAL_PERSON_ORGANIZATION ( #17, #118, #91 ) ;
#107 = AXIS2_PLACEMENT_3D ( 'NONE', #101, #203, #141 ) ;
#108 = DATE_AND_TIME ( #39, #175 ) ;
#109 = PERSON_AND_ORGANIZATION ( #69, #219 ) ;
#110 = EDGE_LOOP ( 'NONE', ( #77, #72 ) ) ;
#111 = EDGE_CURVE ( 'NONE', #92, #80, #8, .T. ) ;
#112 = ORIENTED_EDGE ( 'NONE', *, *, #215, .F. ) ;
#113 = VECTOR ( 'NONE', #30, 1000.000000000000000 ) ;
#114 = ORIENTED_EDGE ( 'NONE', *, *, #209, .T. ) ;
#115 = ORIENTED_EDGE ( 'NONE', *, *, #81, .F. ) ;
#116 = UNCERTAINTY_MEASURE_WITH_UNIT (LENGTH_MEASURE( 1.000000000000000082E-05 ), #167, 'distance_accuracy_value', 'NONE');
#117 = AXIS2_PLACEMENT_3D ( 'NONE', #9, #123, #48 ) ;
#118 = APPROVAL ( #90, 'NEURÈENÝ' ) ;
#119 = ORIENTED_EDGE ( 'NONE', *, *, #29, .T. ) ;
#120 = AXIS2_PLACEMENT_3D ( 'NONE', #220, #180, #199 ) ;
#121 = CARTESIAN_POINT ( 'NONE',  ( 0.000000000000000000, 0.000000000000000000, 3.000000000000000000 ) ) ;
#122 = CARTESIAN_POINT ( 'NONE',  ( 2.600000000000000089, 3.184081677783118191E-16, 315.0000000000000000 ) ) ;
#123 = DIRECTION ( 'NONE',  ( -0.000000000000000000, -0.000000000000000000, -1.000000000000000000 ) ) ;
#124 = LINE ( 'NONE', #200, #251 ) ;
#125 = CARTESIAN_POINT ( 'NONE',  ( 5.000000000000000000, 6.123233995736766282E-16, 3.000000000000000000 ) ) ;
#126 = PRODUCT_RELATED_PRODUCT_CATEGORY ( 'detail', '', ( #181 ) ) ;
#127 = SECURITY_CLASSIFICATION_LEVEL ( 'unclassified' ) ;
#128 = APPROVAL_ROLE ( '' ) ;
#129 = CIRCLE ( 'NONE', #243, 5.000000000000000000 ) ;
#130 = ADVANCED_FACE ( 'NONE', ( #184 ), #49, .F. ) ;
#131 = AXIS2_PLACEMENT_3D ( 'NONE', #43, #136, #211 ) ;
#132 = DATE_AND_TIME ( #42, #41 ) ;
#133 = CALENDAR_DATE ( 2023, 13, 2 ) ;
#134 = FACE_OUTER_BOUND ( 'NONE', #93, .T. ) ;
#135 = CALENDAR_DATE ( 2023, 13, 2 ) ;
#136 = DIRECTION ( 'NONE',  ( -0.000000000000000000, -0.000000000000000000, -1.000000000000000000 ) ) ;
#137 = CARTESIAN_POINT ( 'NONE',  ( 0.000000000000000000, 0.000000000000000000, 0.000000000000000000 ) ) ;
#138 = APPROVAL ( #164, 'NEURÈENÝ' ) ;
#139 = ORIENTED_EDGE ( 'NONE', *, *, #85, .T. ) ;
#140 = DIRECTION ( 'NONE',  ( 0.000000000000000000, 0.000000000000000000, 1.000000000000000000 ) ) ;
#141 = DIRECTION ( 'NONE',  ( 1.000000000000000000, 0.000000000000000000, -0.000000000000000000 ) ) ;
#142 = CARTESIAN_POINT ( 'NONE',  ( 0.000000000000000000, 0.000000000000000000, 0.000000000000000000 ) ) ;
#143 = EDGE_CURVE ( 'NONE', #44, #92, #124, .T. ) ;
#144 = LINE ( 'NONE', #242, #103 ) ;
#145 = AXIS2_PLACEMENT_3D ( 'NONE', #121, #224, #100 ) ;
#146 = CARTESIAN_POINT ( 'NONE',  ( 0.000000000000000000, 0.000000000000000000, 0.000000000000000000 ) ) ;
#147 = APPROVAL_DATE_TIME ( #253, #138 ) ;
#148 = CALENDAR_DATE ( 2023, 13, 2 ) ;
#149 = AXIS2_PLACEMENT_3D ( 'NONE', #154, #192, #21 ) ;
#150 = ORIENTED_EDGE ( 'NONE', *, *, #55, .T. ) ;
#151 = PERSON_AND_ORGANIZATION_ROLE ( 'creator' ) ;
#152 = DIRECTION ( 'NONE',  ( 0.000000000000000000, 0.000000000000000000, 1.000000000000000000 ) ) ;
#153 = PERSON_AND_ORGANIZATION_ROLE ( 'design_owner' ) ;
#154 = CARTESIAN_POINT ( 'NONE',  ( 0.000000000000000000, 0.000000000000000000, 315.0000000000000000 ) ) ;
#155 = AXIS2_PLACEMENT_3D ( 'NONE', #142, #241, #205 ) ;
#156 = APPROVAL_PERSON_ORGANIZATION ( #232, #193, #128 ) ;
#157 = DIRECTION ( 'NONE',  ( 1.000000000000000000, 0.000000000000000000, 0.000000000000000000 ) ) ;
#158 = DIRECTION ( 'NONE',  ( -1.000000000000000000, 0.000000000000000000, 0.000000000000000000 ) ) ;
#159 =( GEOMETRIC_REPRESENTATION_CONTEXT ( 3 ) GLOBAL_UNCERTAINTY_ASSIGNED_CONTEXT ( ( #116 ) ) GLOBAL_UNIT_ASSIGNED_CONTEXT ( ( #167, #2, #188 ) ) REPRESENTATION_CONTEXT ( 'NONE', 'WORKASPACE' ) );
#160 = FACE_OUTER_BOUND ( 'NONE', #212, .T. ) ;
#161 = DIRECTION ( 'NONE',  ( 0.000000000000000000, 0.000000000000000000, 1.000000000000000000 ) ) ;
#162 = ADVANCED_FACE ( 'NONE', ( #86, #32 ), #222, .T. ) ;
#163 = CARTESIAN_POINT ( 'NONE',  ( -5.000000000000000000, 0.000000000000000000, 0.000000000000000000 ) ) ;
#164 = APPROVAL_STATUS ( 'not_yet_approved' ) ;
#165 = DATE_AND_TIME ( #135, #214 ) ;
#166 = PRODUCT_DEFINITION_SHAPE ( 'NONE', 'NONE',  #178 ) ;
#167 =( LENGTH_UNIT ( ) NAMED_UNIT ( * ) SI_UNIT ( .MILLI., .METRE. ) );
#168 = PRODUCT_DEFINITION_FORMATION_WITH_SPECIFIED_SOURCE ( 'LIBOVOLNÝ', '', #181, .NOT_KNOWN. ) ;
#169 = VERTEX_POINT ( 'NONE', #10 ) ;
#170 = DIRECTION ( 'NONE',  ( 1.000000000000000000, 0.000000000000000000, 0.000000000000000000 ) ) ;
#171 = ADVANCED_FACE ( 'NONE', ( #50 ), #11, .T. ) ;
#172 = CYLINDRICAL_SURFACE ( 'NONE', #131, 5.000000000000000000 ) ;
#173 = CC_DESIGN_DATE_AND_TIME_ASSIGNMENT ( #165, #15, ( #57 ) ) ;
#174 = ORIENTED_EDGE ( 'NONE', *, *, #195, .F. ) ;
#175 = LOCAL_TIME ( 16, 48, 28.00000000000000000, #36 ) ;
#176 = EDGE_LOOP ( 'NONE', ( #115, #174, #4, #235 ) ) ;
#177 = ORIENTED_EDGE ( 'NONE', *, *, #204, .F. ) ;
#178 = PRODUCT_DEFINITION ( 'NEZNÁMÝ', '', #168, #247 ) ;
#179 = DIRECTION ( 'NONE',  ( -1.000000000000000000, 0.000000000000000000, 0.000000000000000000 ) ) ;
#180 = DIRECTION ( 'NONE',  ( 0.000000000000000000, 0.000000000000000000, 1.000000000000000000 ) ) ;
#181 = PRODUCT ( '9e43', '9e43', '', ( #74 ) ) ;
#182 = CC_DESIGN_APPROVAL ( #193, ( #168 ) ) ;
#183 = CIRCLE ( 'NONE', #58, 5.000000000000000000 ) ;
#184 = FACE_OUTER_BOUND ( 'NONE', #110, .T. ) ;
#185 = EDGE_CURVE ( 'NONE', #169, #197, #12, .T. ) ;
#186 = APPLICATION_PROTOCOL_DEFINITION ( 'international standard', 'config_control_design', 1994, #250 ) ;
#187 = PERSON_AND_ORGANIZATION ( #69, #219 ) ;
#188 =( NAMED_UNIT ( * ) SI_UNIT ( $, .STERADIAN. ) SOLID_ANGLE_UNIT ( ) );
#189 = COORDINATED_UNIVERSAL_TIME_OFFSET ( 1, 0, .AHEAD. ) ;
#190 = ORIENTED_EDGE ( 'NONE', *, *, #204, .T. ) ;
#191 = PERSON_AND_ORGANIZATION_ROLE ( 'classification_officer' ) ;
#192 = DIRECTION ( 'NONE',  ( 0.000000000000000000, 0.000000000000000000, 1.000000000000000000 ) ) ;
#193 = APPROVAL ( #230, 'NEURÈENÝ' ) ;
#194 = ORIENTED_EDGE ( 'NONE', *, *, #143, .F. ) ;
#195 = EDGE_CURVE ( 'NONE', #44, #26, #73, .T. ) ;
#196 = CARTESIAN_POINT ( 'NONE',  ( 2.600000000000000089, 3.184081677783118191E-16, 315.0000000000000000 ) ) ;
#197 = VERTEX_POINT ( 'NONE', #163 ) ;
#198 = APPROVAL_PERSON_ORGANIZATION ( #19, #138, #53 ) ;
#199 = DIRECTION ( 'NONE',  ( 1.000000000000000000, 0.000000000000000000, 0.000000000000000000 ) ) ;
#200 = CARTESIAN_POINT ( 'NONE',  ( -2.600000000000000089, 0.000000000000000000, 315.0000000000000000 ) ) ;
#201 = CYLINDRICAL_SURFACE ( 'NONE', #16, 2.600000000000000089 ) ;
#202 = CC_DESIGN_APPROVAL ( #118, ( #178 ) ) ;
#203 = DIRECTION ( 'NONE',  ( 0.000000000000000000, 0.000000000000000000, 1.000000000000000000 ) ) ;
#204 = EDGE_CURVE ( 'NONE', #231, #169, #129, .T. ) ;
#205 = DIRECTION ( 'NONE',  ( 1.000000000000000000, 0.000000000000000000, -0.000000000000000000 ) ) ;
#206 = APPROVAL_DATE_TIME ( #108, #118 ) ;
#207 = ORIENTED_EDGE ( 'NONE', *, *, #81, .T. ) ;
#208 = APPROVAL_DATE_TIME ( #132, #193 ) ;
#209 = EDGE_CURVE ( 'NONE', #61, #197, #223, .T. ) ;
#210 = ORIENTED_EDGE ( 'NONE', *, *, #213, .F. ) ;
#211 = DIRECTION ( 'NONE',  ( -1.000000000000000000, 0.000000000000000000, 0.000000000000000000 ) ) ;
#212 = EDGE_LOOP ( 'NONE', ( #112, #207, #150, #194 ) ) ;
#213 = EDGE_CURVE ( 'NONE', #169, #231, #7, .T. ) ;
#214 = LOCAL_TIME ( 16, 48, 28.00000000000000000, #189 ) ;
#215 = EDGE_CURVE ( 'NONE', #26, #44, #234, .T. ) ;
#216 = ORIENTED_EDGE ( 'NONE', *, *, #185, .F. ) ;
#217 = CC_DESIGN_PERSON_AND_ORGANIZATION_ASSIGNMENT ( #225, #37, ( #168 ) ) ;
#218 = DIRECTION ( 'NONE',  ( 0.000000000000000000, 0.000000000000000000, 1.000000000000000000 ) ) ;
#219 = ORGANIZATION ( 'NEURÈENÝ', 'NEURÈENÝ', '' ) ;
#220 = CARTESIAN_POINT ( 'NONE',  ( 0.000000000000000000, 0.000000000000000000, 315.0000000000000000 ) ) ;
#221 = DIRECTION ( 'NONE',  ( -0.000000000000000000, -0.000000000000000000, -1.000000000000000000 ) ) ;
#222 = PLANE ( 'NONE',  #107 ) ;
#223 = CIRCLE ( 'NONE', #27, 5.000000000000000000 ) ;
#224 = DIRECTION ( 'NONE',  ( 0.000000000000000000, 0.000000000000000000, 1.000000000000000000 ) ) ;
#225 = PERSON_AND_ORGANIZATION ( #69, #219 ) ;
#226 = SHAPE_DEFINITION_REPRESENTATION ( #166, #6 ) ;
#227 = CARTESIAN_POINT ( 'NONE',  ( 0.000000000000000000, 0.000000000000000000, 0.000000000000000000 ) ) ;
#228 = VECTOR ( 'NONE', #104, 1000.000000000000000 ) ;
#229 = ORIENTED_EDGE ( 'NONE', *, *, #55, .F. ) ;
#230 = APPROVAL_STATUS ( 'not_yet_approved' ) ;
#231 = VERTEX_POINT ( 'NONE', #125 ) ;
#232 = PERSON_AND_ORGANIZATION ( #69, #219 ) ;
#233 = ORIENTED_EDGE ( 'NONE', *, *, #213, .T. ) ;
#234 = CIRCLE ( 'NONE', #120, 2.600000000000000089 ) ;
#235 = ORIENTED_EDGE ( 'NONE', *, *, #111, .T. ) ;
#236 = ADVANCED_FACE ( 'NONE', ( #160 ), #82, .T. ) ;
#237 = MANIFOLD_SOLID_BREP ( 'Pøidat vysunutím3', #64 ) ;
#238 = APPLICATION_CONTEXT ( 'configuration controlled 3d designs of mechanical parts and assemblies' ) ;
#239 = CC_DESIGN_DATE_AND_TIME_ASSIGNMENT ( #89, #35, ( #178 ) ) ;
#240 = EDGE_LOOP ( 'NONE', ( #20, #229 ) ) ;
#241 = DIRECTION ( 'NONE',  ( 0.000000000000000000, 0.000000000000000000, 1.000000000000000000 ) ) ;
#242 = CARTESIAN_POINT ( 'NONE',  ( 5.000000000000000000, 6.123233995736766282E-16, 3.000000000000000000 ) ) ;
#243 = AXIS2_PLACEMENT_3D ( 'NONE', #248, #140, #105 ) ;
#244 = AXIS2_PLACEMENT_3D ( 'NONE', #1, #152, #54 ) ;
#245 = DIRECTION ( 'NONE',  ( -0.000000000000000000, -0.000000000000000000, -1.000000000000000000 ) ) ;
#246 = DIRECTION ( 'NONE',  ( 0.000000000000000000, 0.000000000000000000, 1.000000000000000000 ) ) ;
#247 = DESIGN_CONTEXT ( 'detailed design', #250, 'design' ) ;
#248 = CARTESIAN_POINT ( 'NONE',  ( 0.000000000000000000, 0.000000000000000000, 3.000000000000000000 ) ) ;
#249 = ADVANCED_FACE ( 'NONE', ( #83 ), #201, .T. ) ;
#250 = APPLICATION_CONTEXT ( 'configuration controlled 3d designs of mechanical parts and assemblies' ) ;
#251 = VECTOR ( 'NONE', #221, 1000.000000000000000 ) ;
#252 = COORDINATED_UNIVERSAL_TIME_OFFSET ( 1, 0, .AHEAD. ) ;
#253 = DATE_AND_TIME ( #133, #46 ) ;
#254 = PERSON_AND_ORGANIZATION ( #69, #219 ) ;
#255 = DIRECTION ( 'NONE',  ( 0.000000000000000000, 0.000000000000000000, 1.000000000000000000 ) ) ;
ENDSEC;
END-ISO-10303-21;
