ISO-10303-21;
HEADER;
FILE_DESCRIPTION (( 'STEP AP203' ),
    '1' );
FILE_NAME ('3fc7.STEP',
    '2023-02-13T09:48:01',
    ( '' ),
    ( '' ),
    'SwSTEP 2.0',
    'SolidWorks 2019',
    '' );
FILE_SCHEMA (( 'CONFIG_CONTROL_DESIGN' ));
ENDSEC;

DATA;
#1 = PERSON_AND_ORGANIZATION ( #25, #91 ) ;
#2 = ORIENTED_EDGE ( 'NONE', *, *, #240, .F. ) ;
#3 = DATE_TIME_ROLE ( 'classification_date' ) ;
#4 = DIRECTION ( 'NONE',  ( 1.000000000000000000, 0.000000000000000000, -0.000000000000000000 ) ) ;
#5 = CALENDAR_DATE ( 2023, 13, 2 ) ;
#6 = EDGE_LOOP ( 'NONE', ( #210, #38, #108, #250 ) ) ;
#7 = CC_DESIGN_APPROVAL ( #190, ( #135 ) ) ;
#8 = DIRECTION ( 'NONE',  ( -0.000000000000000000, -0.000000000000000000, -1.000000000000000000 ) ) ;
#9 = DIRECTION ( 'NONE',  ( 0.000000000000000000, 0.000000000000000000, 1.000000000000000000 ) ) ;
#10 = ADVANCED_FACE ( 'NONE', ( #154 ), #140, .T. ) ;
#11 = CC_DESIGN_APPROVAL ( #42, ( #150 ) ) ;
#12 = DIRECTION ( 'NONE',  ( 0.000000000000000000, 0.000000000000000000, 1.000000000000000000 ) ) ;
#13 = PERSON_AND_ORGANIZATION ( #25, #91 ) ;
#14 = PERSON_AND_ORGANIZATION_ROLE ( 'design_owner' ) ;
#15 = LOCAL_TIME ( 10, 48, 1.000000000000000000, #255 ) ;
#16 = DIRECTION ( 'NONE',  ( 0.000000000000000000, 0.000000000000000000, 1.000000000000000000 ) ) ;
#17 =( NAMED_UNIT ( * ) PLANE_ANGLE_UNIT ( ) SI_UNIT ( $, .RADIAN. ) );
#18 = ORIENTED_EDGE ( 'NONE', *, *, #48, .T. ) ;
#19 = ADVANCED_FACE ( 'NONE', ( #50 ), #241, .T. ) ;
#20 = ORIENTED_EDGE ( 'NONE', *, *, #70, .F. ) ;
#21 = APPLICATION_PROTOCOL_DEFINITION ( 'international standard', 'config_control_design', 1994, #197 ) ;
#22 = ADVANCED_FACE ( 'NONE', ( #237 ), #125, .F. ) ;
#23 = APPROVAL_ROLE ( '' ) ;
#24 = PERSON_AND_ORGANIZATION_ROLE ( 'creator' ) ;
#25 = PERSON ( 'NEURÈENÝ', 'NEURÈENÝ', 'NEURÈENÝ', ('NEURÈENÝ'), ('NEURÈENÝ'), ('NEURÈENÝ') ) ;
#26 = DIRECTION ( 'NONE',  ( -0.000000000000000000, -0.000000000000000000, -1.000000000000000000 ) ) ;
#27 = CARTESIAN_POINT ( 'NONE',  ( 0.000000000000000000, 0.000000000000000000, 400.0000000000000000 ) ) ;
#28 = CLOSED_SHELL ( 'NONE', ( #10, #234, #230, #185, #22, #19, #112 ) ) ;
#29 = AXIS2_PLACEMENT_3D ( 'NONE', #95, #12, #68 ) ;
#30 = PLANE ( 'NONE',  #100 ) ;
#31 = DIRECTION ( 'NONE',  ( 0.000000000000000000, 0.000000000000000000, 1.000000000000000000 ) ) ;
#32 = DIRECTION ( 'NONE',  ( 0.000000000000000000, 0.000000000000000000, 1.000000000000000000 ) ) ;
#33 = APPROVAL_PERSON_ORGANIZATION ( #114, #83, #23 ) ;
#34 = LOCAL_TIME ( 10, 48, 1.000000000000000000, #229 ) ;
#35 = EDGE_LOOP ( 'NONE', ( #20, #119, #162, #78 ) ) ;
#36 = PERSON_AND_ORGANIZATION_ROLE ( 'creator' ) ;
#37 = EDGE_CURVE ( 'NONE', #148, #201, #231, .T. ) ;
#38 = ORIENTED_EDGE ( 'NONE', *, *, #70, .T. ) ;
#39 = APPROVAL_DATE_TIME ( #171, #190 ) ;
#40 = ORIENTED_EDGE ( 'NONE', *, *, #173, .F. ) ;
#41 = CALENDAR_DATE ( 2023, 13, 2 ) ;
#42 = APPROVAL ( #200, 'NEURÈENÝ' ) ;
#43 = CIRCLE ( 'NONE', #217, 11.00000000000000000 ) ;
#44 = CARTESIAN_POINT ( 'NONE',  ( 11.00000000000000000, 1.347111479062088405E-15, 0.000000000000000000 ) ) ;
#45 = APPLICATION_CONTEXT ( 'configuration controlled 3d designs of mechanical parts and assemblies' ) ;
#46 = AXIS2_PLACEMENT_3D ( 'NONE', #153, #180, #194 ) ;
#47 = APPROVAL_PERSON_ORGANIZATION ( #136, #42, #49 ) ;
#48 = EDGE_CURVE ( 'NONE', #151, #60, #149, .T. ) ;
#49 = APPROVAL_ROLE ( '' ) ;
#50 = FACE_OUTER_BOUND ( 'NONE', #35, .T. ) ;
#51 = CARTESIAN_POINT ( 'NONE',  ( 7.750000000000000000, 9.491012693391987787E-16, 400.0000000000000000 ) ) ;
#52 = DIRECTION ( 'NONE',  ( 0.000000000000000000, 0.000000000000000000, 1.000000000000000000 ) ) ;
#53 = AXIS2_PLACEMENT_3D ( 'NONE', #90, #157, #161 ) ;
#54 =( LENGTH_UNIT ( ) NAMED_UNIT ( * ) SI_UNIT ( .MILLI., .METRE. ) );
#55 = CARTESIAN_POINT ( 'NONE',  ( -7.750000000000000000, 0.000000000000000000, 400.0000000000000000 ) ) ;
#56 = CIRCLE ( 'NONE', #192, 7.750000000000000000 ) ;
#57 = ORIENTED_EDGE ( 'NONE', *, *, #106, .T. ) ;
#58 = CC_DESIGN_PERSON_AND_ORGANIZATION_ASSIGNMENT ( #13, #14, ( #75 ) ) ;
#59 = UNCERTAINTY_MEASURE_WITH_UNIT (LENGTH_MEASURE( 1.000000000000000082E-05 ), #54, 'distance_accuracy_value', 'NONE');
#60 = VERTEX_POINT ( 'NONE', #44 ) ;
#61 = CIRCLE ( 'NONE', #142, 11.00000000000000000 ) ;
#62 = LINE ( 'NONE', #239, #155 ) ;
#63 = CARTESIAN_POINT ( 'NONE',  ( 0.000000000000000000, 0.000000000000000000, 7.000000000000000000 ) ) ;
#64 = DIRECTION ( 'NONE',  ( 1.000000000000000000, 0.000000000000000000, 0.000000000000000000 ) ) ;
#65 = CARTESIAN_POINT ( 'NONE',  ( -7.750000000000000000, 0.000000000000000000, 7.000000000000000000 ) ) ;
#66 = CC_DESIGN_DATE_AND_TIME_ASSIGNMENT ( #170, #97, ( #135 ) ) ;
#67 = PLANE ( 'NONE',  #109 ) ;
#68 = DIRECTION ( 'NONE',  ( 1.000000000000000000, 0.000000000000000000, 0.000000000000000000 ) ) ;
#69 = ORIENTED_EDGE ( 'NONE', *, *, #240, .T. ) ;
#70 = EDGE_CURVE ( 'NONE', #201, #74, #244, .T. ) ;
#71 = FACE_OUTER_BOUND ( 'NONE', #252, .T. ) ;
#72 = MANIFOLD_SOLID_BREP ( 'Pøidat vysunutím3', #28 ) ;
#73 = ORIENTED_EDGE ( 'NONE', *, *, #129, .T. ) ;
#74 = VERTEX_POINT ( 'NONE', #175 ) ;
#75 = PRODUCT ( '3fc7', '3fc7', '', ( #93 ) ) ;
#76 = AXIS2_PLACEMENT_3D ( 'NONE', #203, #31, #4 ) ;
#77 = CALENDAR_DATE ( 2023, 13, 2 ) ;
#78 = ORIENTED_EDGE ( 'NONE', *, *, #245, .T. ) ;
#79 = APPROVAL_DATE_TIME ( #124, #42 ) ;
#80 = LINE ( 'NONE', #102, #254 ) ;
#81 = COORDINATED_UNIVERSAL_TIME_OFFSET ( 1, 0, .AHEAD. ) ;
#82 = FACE_OUTER_BOUND ( 'NONE', #96, .T. ) ;
#83 = APPROVAL ( #191, 'NEURÈENÝ' ) ;
#84 = DIRECTION ( 'NONE',  ( 0.000000000000000000, 0.000000000000000000, 1.000000000000000000 ) ) ;
#85 = DIRECTION ( 'NONE',  ( -1.000000000000000000, 0.000000000000000000, 0.000000000000000000 ) ) ;
#86 = VECTOR ( 'NONE', #139, 1000.000000000000000 ) ;
#87 = FACE_OUTER_BOUND ( 'NONE', #168, .T. ) ;
#88 = FACE_BOUND ( 'NONE', #178, .T. ) ;
#89 = AXIS2_PLACEMENT_3D ( 'NONE', #27, #196, #238 ) ;
#90 = CARTESIAN_POINT ( 'NONE',  ( 0.000000000000000000, 0.000000000000000000, 7.000000000000000000 ) ) ;
#91 = ORGANIZATION ( 'NEURÈENÝ', 'NEURÈENÝ', '' ) ;
#92 = VERTEX_POINT ( 'NONE', #65 ) ;
#93 = MECHANICAL_CONTEXT ( 'NONE', #45, 'mechanical' ) ;
#94 = EDGE_CURVE ( 'NONE', #60, #151, #174, .T. ) ;
#95 = CARTESIAN_POINT ( 'NONE',  ( 0.000000000000000000, 0.000000000000000000, 400.0000000000000000 ) ) ;
#96 = EDGE_LOOP ( 'NONE', ( #228, #211 ) ) ;
#97 = DATE_TIME_ROLE ( 'creation_date' ) ;
#98 = PRODUCT_DEFINITION_SHAPE ( 'NONE', 'NONE',  #135 ) ;
#99 = PERSON_AND_ORGANIZATION ( #25, #91 ) ;
#100 = AXIS2_PLACEMENT_3D ( 'NONE', #222, #172, #152 ) ;
#101 = DATE_AND_TIME ( #77, #15 ) ;
#102 = CARTESIAN_POINT ( 'NONE',  ( 11.00000000000000000, 1.347111479062088405E-15, 7.000000000000000000 ) ) ;
#103 = PERSON_AND_ORGANIZATION_ROLE ( 'design_supplier' ) ;
#104 = DIRECTION ( 'NONE',  ( -0.000000000000000000, -0.000000000000000000, -1.000000000000000000 ) ) ;
#105 = CARTESIAN_POINT ( 'NONE',  ( -11.00000000000000000, 0.000000000000000000, 7.000000000000000000 ) ) ;
#106 = EDGE_CURVE ( 'NONE', #186, #60, #80, .T. ) ;
#107 = EDGE_LOOP ( 'NONE', ( #146, #133 ) ) ;
#108 = ORIENTED_EDGE ( 'NONE', *, *, #122, .T. ) ;
#109 = AXIS2_PLACEMENT_3D ( 'NONE', #163, #158, #227 ) ;
#110 = CYLINDRICAL_SURFACE ( 'NONE', #53, 11.00000000000000000 ) ;
#111 = CARTESIAN_POINT ( 'NONE',  ( 7.750000000000000000, 9.491012693391987787E-16, 400.0000000000000000 ) ) ;
#112 = ADVANCED_FACE ( 'NONE', ( #82 ), #30, .T. ) ;
#113 = AXIS2_PLACEMENT_3D ( 'NONE', #141, #84, #120 ) ;
#114 = PERSON_AND_ORGANIZATION ( #25, #91 ) ;
#115 = EDGE_CURVE ( 'NONE', #148, #92, #62, .T. ) ;
#116 = CC_DESIGN_APPROVAL ( #83, ( #123 ) ) ;
#117 = PERSON_AND_ORGANIZATION ( #25, #91 ) ;
#118 = PERSON_AND_ORGANIZATION ( #25, #91 ) ;
#119 = ORIENTED_EDGE ( 'NONE', *, *, #37, .F. ) ;
#120 = DIRECTION ( 'NONE',  ( 1.000000000000000000, 0.000000000000000000, 0.000000000000000000 ) ) ;
#121 = SHAPE_DEFINITION_REPRESENTATION ( #98, #243 ) ;
#122 = EDGE_CURVE ( 'NONE', #74, #92, #56, .T. ) ;
#123 = PRODUCT_DEFINITION_FORMATION_WITH_SPECIFIED_SOURCE ( 'LIBOVOLNÝ', '', #75, .NOT_KNOWN. ) ;
#124 = DATE_AND_TIME ( #176, #242 ) ;
#125 = PLANE ( 'NONE',  #76 ) ;
#126 = CYLINDRICAL_SURFACE ( 'NONE', #159, 11.00000000000000000 ) ;
#127 = AXIS2_PLACEMENT_3D ( 'NONE', #246, #52, #128 ) ;
#128 = DIRECTION ( 'NONE',  ( 1.000000000000000000, 0.000000000000000000, 0.000000000000000000 ) ) ;
#129 = EDGE_CURVE ( 'NONE', #166, #151, #219, .T. ) ;
#130 = VECTOR ( 'NONE', #26, 1000.000000000000000 ) ;
#131 = DIRECTION ( 'NONE',  ( 1.000000000000000000, 0.000000000000000000, 0.000000000000000000 ) ) ;
#132 = CALENDAR_DATE ( 2023, 13, 2 ) ;
#133 = ORIENTED_EDGE ( 'NONE', *, *, #94, .F. ) ;
#134 = APPROVAL_STATUS ( 'not_yet_approved' ) ;
#135 = PRODUCT_DEFINITION ( 'NEZNÁMÝ', '', #123, #189 ) ;
#136 = PERSON_AND_ORGANIZATION ( #25, #91 ) ;
#137 = DIRECTION ( 'NONE',  ( 0.000000000000000000, 0.000000000000000000, 1.000000000000000000 ) ) ;
#138 = PRODUCT_RELATED_PRODUCT_CATEGORY ( 'detail', '', ( #75 ) ) ;
#139 = DIRECTION ( 'NONE',  ( -0.000000000000000000, -0.000000000000000000, -1.000000000000000000 ) ) ;
#140 = CYLINDRICAL_SURFACE ( 'NONE', #215, 7.750000000000000000 ) ;
#141 = CARTESIAN_POINT ( 'NONE',  ( 0.000000000000000000, 0.000000000000000000, 0.000000000000000000 ) ) ;
#142 = AXIS2_PLACEMENT_3D ( 'NONE', #181, #247, #131 ) ;
#143 = CARTESIAN_POINT ( 'NONE',  ( 0.000000000000000000, 0.000000000000000000, 7.000000000000000000 ) ) ;
#144 = FACE_OUTER_BOUND ( 'NONE', #226, .T. ) ;
#145 = CC_DESIGN_PERSON_AND_ORGANIZATION_ASSIGNMENT ( #118, #24, ( #123 ) ) ;
#146 = ORIENTED_EDGE ( 'NONE', *, *, #48, .F. ) ;
#147 = EDGE_CURVE ( 'NONE', #201, #148, #225, .T. ) ;
#148 = VERTEX_POINT ( 'NONE', #55 ) ;
#149 = CIRCLE ( 'NONE', #220, 11.00000000000000000 ) ;
#150 = SECURITY_CLASSIFICATION ( '', '', #236 ) ;
#151 = VERTEX_POINT ( 'NONE', #183 ) ;
#152 = DIRECTION ( 'NONE',  ( 1.000000000000000000, 0.000000000000000000, -0.000000000000000000 ) ) ;
#153 = CARTESIAN_POINT ( 'NONE',  ( 0.000000000000000000, 0.000000000000000000, 400.0000000000000000 ) ) ;
#154 = FACE_OUTER_BOUND ( 'NONE', #6, .T. ) ;
#155 = VECTOR ( 'NONE', #218, 1000.000000000000000 ) ;
#156 = DIRECTION ( 'NONE',  ( 1.000000000000000000, 0.000000000000000000, 0.000000000000000000 ) ) ;
#157 = DIRECTION ( 'NONE',  ( -0.000000000000000000, -0.000000000000000000, -1.000000000000000000 ) ) ;
#158 = DIRECTION ( 'NONE',  ( 0.000000000000000000, 0.000000000000000000, 1.000000000000000000 ) ) ;
#159 = AXIS2_PLACEMENT_3D ( 'NONE', #248, #249, #206 ) ;
#160 = AXIS2_PLACEMENT_3D ( 'NONE', #184, #32, #223 ) ;
#161 = DIRECTION ( 'NONE',  ( -1.000000000000000000, 0.000000000000000000, 0.000000000000000000 ) ) ;
#162 = ORIENTED_EDGE ( 'NONE', *, *, #115, .T. ) ;
#163 = CARTESIAN_POINT ( 'NONE',  ( 0.000000000000000000, 0.000000000000000000, 7.000000000000000000 ) ) ;
#164 = ORIENTED_EDGE ( 'NONE', *, *, #94, .T. ) ;
#165 = CARTESIAN_POINT ( 'NONE',  ( -11.00000000000000000, 0.000000000000000000, 7.000000000000000000 ) ) ;
#166 = VERTEX_POINT ( 'NONE', #165 ) ;
#167 = LOCAL_TIME ( 10, 48, 1.000000000000000000, #81 ) ;
#168 = EDGE_LOOP ( 'NONE', ( #235, #40, #73, #18 ) ) ;
#169 = CC_DESIGN_PERSON_AND_ORGANIZATION_ASSIGNMENT ( #1, #103, ( #123 ) ) ;
#170 = DATE_AND_TIME ( #41, #34 ) ;
#171 = DATE_AND_TIME ( #132, #187 ) ;
#172 = DIRECTION ( 'NONE',  ( 0.000000000000000000, 0.000000000000000000, 1.000000000000000000 ) ) ;
#173 = EDGE_CURVE ( 'NONE', #166, #186, #43, .T. ) ;
#174 = CIRCLE ( 'NONE', #113, 11.00000000000000000 ) ;
#175 = CARTESIAN_POINT ( 'NONE',  ( 7.750000000000000000, 9.491012693391987787E-16, 7.000000000000000000 ) ) ;
#176 = CALENDAR_DATE ( 2023, 13, 2 ) ;
#177 = CARTESIAN_POINT ( 'NONE',  ( 0.000000000000000000, 0.000000000000000000, 0.000000000000000000 ) ) ;
#178 = EDGE_LOOP ( 'NONE', ( #208, #188 ) ) ;
#179 = PERSON_AND_ORGANIZATION_ROLE ( 'classification_officer' ) ;
#180 = DIRECTION ( 'NONE',  ( 0.000000000000000000, 0.000000000000000000, 1.000000000000000000 ) ) ;
#181 = CARTESIAN_POINT ( 'NONE',  ( 0.000000000000000000, 0.000000000000000000, 7.000000000000000000 ) ) ;
#182 = CC_DESIGN_PERSON_AND_ORGANIZATION_ASSIGNMENT ( #195, #179, ( #150 ) ) ;
#183 = CARTESIAN_POINT ( 'NONE',  ( -11.00000000000000000, 0.000000000000000000, 0.000000000000000000 ) ) ;
#184 = CARTESIAN_POINT ( 'NONE',  ( 0.000000000000000000, 0.000000000000000000, 0.000000000000000000 ) ) ;
#185 = ADVANCED_FACE ( 'NONE', ( #88, #71 ), #67, .T. ) ;
#186 = VERTEX_POINT ( 'NONE', #224 ) ;
#187 = LOCAL_TIME ( 10, 48, 1.000000000000000000, #214 ) ;
#188 = ORIENTED_EDGE ( 'NONE', *, *, #122, .F. ) ;
#189 = DESIGN_CONTEXT ( 'detailed design', #197, 'design' ) ;
#190 = APPROVAL ( #134, 'NEURÈENÝ' ) ;
#191 = APPROVAL_STATUS ( 'not_yet_approved' ) ;
#192 = AXIS2_PLACEMENT_3D ( 'NONE', #63, #137, #64 ) ;
#193 = COORDINATED_UNIVERSAL_TIME_OFFSET ( 1, 0, .AHEAD. ) ;
#194 = DIRECTION ( 'NONE',  ( 1.000000000000000000, 0.000000000000000000, 0.000000000000000000 ) ) ;
#195 = PERSON_AND_ORGANIZATION ( #25, #91 ) ;
#196 = DIRECTION ( 'NONE',  ( -0.000000000000000000, -0.000000000000000000, -1.000000000000000000 ) ) ;
#197 = APPLICATION_CONTEXT ( 'configuration controlled 3d designs of mechanical parts and assemblies' ) ;
#198 = CIRCLE ( 'NONE', #127, 7.750000000000000000 ) ;
#199 = CC_DESIGN_DATE_AND_TIME_ASSIGNMENT ( #202, #3, ( #150 ) ) ;
#200 = APPROVAL_STATUS ( 'not_yet_approved' ) ;
#201 = VERTEX_POINT ( 'NONE', #111 ) ;
#202 = DATE_AND_TIME ( #5, #167 ) ;
#203 = CARTESIAN_POINT ( 'NONE',  ( 0.000000000000000000, 0.000000000000000000, 0.000000000000000000 ) ) ;
#204 =( GEOMETRIC_REPRESENTATION_CONTEXT ( 3 ) GLOBAL_UNCERTAINTY_ASSIGNED_CONTEXT ( ( #59 ) ) GLOBAL_UNIT_ASSIGNED_CONTEXT ( ( #54, #17, #209 ) ) REPRESENTATION_CONTEXT ( 'NONE', 'WORKASPACE' ) );
#205 = CC_DESIGN_PERSON_AND_ORGANIZATION_ASSIGNMENT ( #117, #36, ( #135 ) ) ;
#206 = DIRECTION ( 'NONE',  ( -1.000000000000000000, 0.000000000000000000, 0.000000000000000000 ) ) ;
#207 = APPLICATION_PROTOCOL_DEFINITION ( 'international standard', 'config_control_design', 1994, #45 ) ;
#208 = ORIENTED_EDGE ( 'NONE', *, *, #245, .F. ) ;
#209 =( NAMED_UNIT ( * ) SI_UNIT ( $, .STERADIAN. ) SOLID_ANGLE_UNIT ( ) );
#210 = ORIENTED_EDGE ( 'NONE', *, *, #147, .F. ) ;
#211 = ORIENTED_EDGE ( 'NONE', *, *, #147, .T. ) ;
#212 = ORIENTED_EDGE ( 'NONE', *, *, #173, .T. ) ;
#213 = APPROVAL_ROLE ( '' ) ;
#214 = COORDINATED_UNIVERSAL_TIME_OFFSET ( 1, 0, .AHEAD. ) ;
#215 = AXIS2_PLACEMENT_3D ( 'NONE', #221, #8, #85 ) ;
#216 = ORIENTED_EDGE ( 'NONE', *, *, #129, .F. ) ;
#217 = AXIS2_PLACEMENT_3D ( 'NONE', #143, #16, #251 ) ;
#218 = DIRECTION ( 'NONE',  ( -0.000000000000000000, -0.000000000000000000, -1.000000000000000000 ) ) ;
#219 = LINE ( 'NONE', #105, #86 ) ;
#220 = AXIS2_PLACEMENT_3D ( 'NONE', #177, #9, #156 ) ;
#221 = CARTESIAN_POINT ( 'NONE',  ( 0.000000000000000000, 0.000000000000000000, 400.0000000000000000 ) ) ;
#222 = CARTESIAN_POINT ( 'NONE',  ( 0.000000000000000000, 0.000000000000000000, 400.0000000000000000 ) ) ;
#223 = DIRECTION ( 'NONE',  ( 1.000000000000000000, 0.000000000000000000, 0.000000000000000000 ) ) ;
#224 = CARTESIAN_POINT ( 'NONE',  ( 11.00000000000000000, 1.347111479062088405E-15, 7.000000000000000000 ) ) ;
#225 = CIRCLE ( 'NONE', #29, 7.750000000000000000 ) ;
#226 = EDGE_LOOP ( 'NONE', ( #2, #57, #164, #216 ) ) ;
#227 = DIRECTION ( 'NONE',  ( 1.000000000000000000, 0.000000000000000000, -0.000000000000000000 ) ) ;
#228 = ORIENTED_EDGE ( 'NONE', *, *, #37, .T. ) ;
#229 = COORDINATED_UNIVERSAL_TIME_OFFSET ( 1, 0, .AHEAD. ) ;
#230 = ADVANCED_FACE ( 'NONE', ( #87 ), #110, .T. ) ;
#231 = CIRCLE ( 'NONE', #46, 7.750000000000000000 ) ;
#232 = APPROVAL_PERSON_ORGANIZATION ( #99, #190, #213 ) ;
#233 = APPROVAL_DATE_TIME ( #101, #83 ) ;
#234 = ADVANCED_FACE ( 'NONE', ( #144 ), #126, .T. ) ;
#235 = ORIENTED_EDGE ( 'NONE', *, *, #106, .F. ) ;
#236 = SECURITY_CLASSIFICATION_LEVEL ( 'unclassified' ) ;
#237 = FACE_OUTER_BOUND ( 'NONE', #107, .T. ) ;
#238 = DIRECTION ( 'NONE',  ( -1.000000000000000000, 0.000000000000000000, 0.000000000000000000 ) ) ;
#239 = CARTESIAN_POINT ( 'NONE',  ( -7.750000000000000000, 0.000000000000000000, 400.0000000000000000 ) ) ;
#240 = EDGE_CURVE ( 'NONE', #186, #166, #61, .T. ) ;
#241 = CYLINDRICAL_SURFACE ( 'NONE', #89, 7.750000000000000000 ) ;
#242 = LOCAL_TIME ( 10, 48, 1.000000000000000000, #193 ) ;
#243 = ADVANCED_BREP_SHAPE_REPRESENTATION ( '3fc7', ( #72, #160 ), #204 ) ;
#244 = LINE ( 'NONE', #51, #130 ) ;
#245 = EDGE_CURVE ( 'NONE', #92, #74, #198, .T. ) ;
#246 = CARTESIAN_POINT ( 'NONE',  ( 0.000000000000000000, 0.000000000000000000, 7.000000000000000000 ) ) ;
#247 = DIRECTION ( 'NONE',  ( 0.000000000000000000, 0.000000000000000000, 1.000000000000000000 ) ) ;
#248 = CARTESIAN_POINT ( 'NONE',  ( 0.000000000000000000, 0.000000000000000000, 7.000000000000000000 ) ) ;
#249 = DIRECTION ( 'NONE',  ( -0.000000000000000000, -0.000000000000000000, -1.000000000000000000 ) ) ;
#250 = ORIENTED_EDGE ( 'NONE', *, *, #115, .F. ) ;
#251 = DIRECTION ( 'NONE',  ( 1.000000000000000000, 0.000000000000000000, 0.000000000000000000 ) ) ;
#252 = EDGE_LOOP ( 'NONE', ( #212, #69 ) ) ;
#253 = CC_DESIGN_SECURITY_CLASSIFICATION ( #150, ( #123 ) ) ;
#254 = VECTOR ( 'NONE', #104, 1000.000000000000000 ) ;
#255 = COORDINATED_UNIVERSAL_TIME_OFFSET ( 1, 0, .AHEAD. ) ;
ENDSEC;
END-ISO-10303-21;
