ISO-10303-21;
HEADER;
FILE_DESCRIPTION (( 'STEP AP203' ),
    '1' );
FILE_NAME ('b7d3.STEP',
    '2023-02-13T08:46:08',
    ( '' ),
    ( '' ),
    'SwSTEP 2.0',
    'SolidWorks 2019',
    '' );
FILE_SCHEMA (( 'CONFIG_CONTROL_DESIGN' ));
ENDSEC;

DATA;
#1 = DIRECTION ( 'NONE',  ( 1.000000000000000000, 0.000000000000000000, 0.000000000000000000 ) ) ;
#2 = CARTESIAN_POINT ( 'NONE',  ( 0.000000000000000000, 0.000000000000000000, 160.0000000000000000 ) ) ;
#3 = CC_DESIGN_APPROVAL ( #209, ( #195 ) ) ;
#4 = CARTESIAN_POINT ( 'NONE',  ( 0.000000000000000000, 0.000000000000000000, 7.000000000000000000 ) ) ;
#5 = CYLINDRICAL_SURFACE ( 'NONE', #100, 9.000000000000001776 ) ;
#6 = AXIS2_PLACEMENT_3D ( 'NONE', #69, #188, #210 ) ;
#7 = APPLICATION_PROTOCOL_DEFINITION ( 'international standard', 'config_control_design', 1994, #35 ) ;
#8 = DIRECTION ( 'NONE',  ( 0.000000000000000000, 0.000000000000000000, 1.000000000000000000 ) ) ;
#9 = ORIENTED_EDGE ( 'NONE', *, *, #143, .F. ) ;
#10 = EDGE_LOOP ( 'NONE', ( #94, #44 ) ) ;
#11 = ORIENTED_EDGE ( 'NONE', *, *, #212, .F. ) ;
#12 = EDGE_CURVE ( 'NONE', #28, #144, #224, .T. ) ;
#13 = DIRECTION ( 'NONE',  ( 1.000000000000000000, 0.000000000000000000, -0.000000000000000000 ) ) ;
#14 = LOCAL_TIME ( 9, 46, 8.000000000000000000, #133 ) ;
#15 = CARTESIAN_POINT ( 'NONE',  ( 12.00000000000000178, 1.469576158976824144E-15, 0.000000000000000000 ) ) ;
#16 = EDGE_LOOP ( 'NONE', ( #116, #189, #192, #208 ) ) ;
#17 = DIRECTION ( 'NONE',  ( 0.000000000000000000, 0.000000000000000000, 1.000000000000000000 ) ) ;
#18 = CARTESIAN_POINT ( 'NONE',  ( 0.000000000000000000, 0.000000000000000000, 7.000000000000000000 ) ) ;
#19 = APPROVAL ( #151, 'NEURÈENÝ' ) ;
#20 = DIRECTION ( 'NONE',  ( -0.000000000000000000, -0.000000000000000000, -1.000000000000000000 ) ) ;
#21 = FACE_OUTER_BOUND ( 'NONE', #16, .T. ) ;
#22 = DIRECTION ( 'NONE',  ( -0.000000000000000000, -0.000000000000000000, -1.000000000000000000 ) ) ;
#23 = CARTESIAN_POINT ( 'NONE',  ( 9.000000000000001776, 1.102182119232617911E-15, 160.0000000000000000 ) ) ;
#24 = LOCAL_TIME ( 9, 46, 8.000000000000000000, #80 ) ;
#25 = APPROVAL_STATUS ( 'not_yet_approved' ) ;
#26 = LOCAL_TIME ( 9, 46, 8.000000000000000000, #174 ) ;
#27 =( NAMED_UNIT ( * ) SI_UNIT ( $, .STERADIAN. ) SOLID_ANGLE_UNIT ( ) );
#28 = VERTEX_POINT ( 'NONE', #15 ) ;
#29 = AXIS2_PLACEMENT_3D ( 'NONE', #225, #41, #206 ) ;
#30 = EDGE_CURVE ( 'NONE', #90, #229, #214, .T. ) ;
#31 = APPROVAL_ROLE ( '' ) ;
#32 = CIRCLE ( 'NONE', #58, 12.00000000000000178 ) ;
#33 = CARTESIAN_POINT ( 'NONE',  ( 0.000000000000000000, 0.000000000000000000, 7.000000000000000000 ) ) ;
#34 = LOCAL_TIME ( 9, 46, 8.000000000000000000, #217 ) ;
#35 = APPLICATION_CONTEXT ( 'configuration controlled 3d designs of mechanical parts and assemblies' ) ;
#36 = PLANE ( 'NONE',  #199 ) ;
#37 = ADVANCED_FACE ( 'NONE', ( #142 ), #56, .T. ) ;
#38 = LINE ( 'NONE', #201, #117 ) ;
#39 = DIRECTION ( 'NONE',  ( -1.000000000000000000, 0.000000000000000000, 0.000000000000000000 ) ) ;
#40 = EDGE_CURVE ( 'NONE', #211, #157, #32, .T. ) ;
#41 = DIRECTION ( 'NONE',  ( 0.000000000000000000, 0.000000000000000000, 1.000000000000000000 ) ) ;
#42 = DIRECTION ( 'NONE',  ( 1.000000000000000000, 0.000000000000000000, -0.000000000000000000 ) ) ;
#43 = CIRCLE ( 'NONE', #54, 9.000000000000001776 ) ;
#44 = ORIENTED_EDGE ( 'NONE', *, *, #40, .T. ) ;
#45 = APPROVAL_PERSON_ORGANIZATION ( #202, #19, #128 ) ;
#46 = ORIENTED_EDGE ( 'NONE', *, *, #240, .T. ) ;
#47 = COORDINATED_UNIVERSAL_TIME_OFFSET ( 1, 0, .AHEAD. ) ;
#48 = EDGE_LOOP ( 'NONE', ( #9, #112, #75, #46 ) ) ;
#49 = CC_DESIGN_DATE_AND_TIME_ASSIGNMENT ( #92, #96, ( #70 ) ) ;
#50 = VECTOR ( 'NONE', #22, 1000.000000000000000 ) ;
#51 = ORIENTED_EDGE ( 'NONE', *, *, #65, .T. ) ;
#52 = DATE_AND_TIME ( #248, #14 ) ;
#53 = DIRECTION ( 'NONE',  ( 1.000000000000000000, 0.000000000000000000, 0.000000000000000000 ) ) ;
#54 = AXIS2_PLACEMENT_3D ( 'NONE', #158, #106, #82 ) ;
#55 = DATE_TIME_ROLE ( 'classification_date' ) ;
#56 = PLANE ( 'NONE',  #176 ) ;
#57 = PERSON_AND_ORGANIZATION ( #109, #233 ) ;
#58 = AXIS2_PLACEMENT_3D ( 'NONE', #33, #103, #76 ) ;
#59 = CARTESIAN_POINT ( 'NONE',  ( 0.000000000000000000, 0.000000000000000000, 160.0000000000000000 ) ) ;
#60 = DIRECTION ( 'NONE',  ( 1.000000000000000000, 0.000000000000000000, 0.000000000000000000 ) ) ;
#61 = FACE_OUTER_BOUND ( 'NONE', #48, .T. ) ;
#62 = DIRECTION ( 'NONE',  ( 0.000000000000000000, 0.000000000000000000, 1.000000000000000000 ) ) ;
#63 = CIRCLE ( 'NONE', #6, 9.000000000000001776 ) ;
#64 = CARTESIAN_POINT ( 'NONE',  ( 9.000000000000001776, 1.102182119232617911E-15, 160.0000000000000000 ) ) ;
#65 = EDGE_CURVE ( 'NONE', #229, #90, #43, .T. ) ;
#66 = ORIENTED_EDGE ( 'NONE', *, *, #230, .T. ) ;
#67 = CC_DESIGN_SECURITY_CLASSIFICATION ( #195, ( #93 ) ) ;
#68 = ORIENTED_EDGE ( 'NONE', *, *, #12, .T. ) ;
#69 = CARTESIAN_POINT ( 'NONE',  ( 0.000000000000000000, 0.000000000000000000, 7.000000000000000000 ) ) ;
#70 = PRODUCT_DEFINITION ( 'NEZNÁMÝ', '', #93, #173 ) ;
#71 = ORIENTED_EDGE ( 'NONE', *, *, #40, .F. ) ;
#72 = PERSON_AND_ORGANIZATION ( #109, #233 ) ;
#73 = PRODUCT_DEFINITION_SHAPE ( 'NONE', 'NONE',  #70 ) ;
#74 = CARTESIAN_POINT ( 'NONE',  ( 0.000000000000000000, 0.000000000000000000, 0.000000000000000000 ) ) ;
#75 = ORIENTED_EDGE ( 'NONE', *, *, #91, .T. ) ;
#76 = DIRECTION ( 'NONE',  ( 1.000000000000000000, 0.000000000000000000, 0.000000000000000000 ) ) ;
#77 = PERSON_AND_ORGANIZATION_ROLE ( 'design_supplier' ) ;
#78 = APPROVAL_DATE_TIME ( #235, #219 ) ;
#79 = DIRECTION ( 'NONE',  ( 1.000000000000000000, 0.000000000000000000, 0.000000000000000000 ) ) ;
#80 = COORDINATED_UNIVERSAL_TIME_OFFSET ( 1, 0, .AHEAD. ) ;
#81 = PERSON_AND_ORGANIZATION ( #109, #233 ) ;
#82 = DIRECTION ( 'NONE',  ( 1.000000000000000000, 0.000000000000000000, 0.000000000000000000 ) ) ;
#83 = AXIS2_PLACEMENT_3D ( 'NONE', #216, #17, #53 ) ;
#84 = APPROVAL_PERSON_ORGANIZATION ( #57, #209, #31 ) ;
#85 = CARTESIAN_POINT ( 'NONE',  ( 0.000000000000000000, 0.000000000000000000, 0.000000000000000000 ) ) ;
#86 = CYLINDRICAL_SURFACE ( 'NONE', #102, 9.000000000000001776 ) ;
#87 = AXIS2_PLACEMENT_3D ( 'NONE', #4, #203, #182 ) ;
#88 = CARTESIAN_POINT ( 'NONE',  ( 12.00000000000000178, 1.469576158976824144E-15, 7.000000000000000000 ) ) ;
#89 = DIRECTION ( 'NONE',  ( 1.000000000000000000, 0.000000000000000000, 0.000000000000000000 ) ) ;
#90 = VERTEX_POINT ( 'NONE', #64 ) ;
#91 = EDGE_CURVE ( 'NONE', #157, #144, #38, .T. ) ;
#92 = DATE_AND_TIME ( #170, #162 ) ;
#93 = PRODUCT_DEFINITION_FORMATION_WITH_SPECIFIED_SOURCE ( 'LIBOVOLNÝ', '', #234, .NOT_KNOWN. ) ;
#94 = ORIENTED_EDGE ( 'NONE', *, *, #152, .T. ) ;
#95 = EDGE_LOOP ( 'NONE', ( #168, #191 ) ) ;
#96 = DATE_TIME_ROLE ( 'creation_date' ) ;
#97 = EDGE_CURVE ( 'NONE', #229, #198, #181, .T. ) ;
#98 = ORIENTED_EDGE ( 'NONE', *, *, #91, .F. ) ;
#99 = EDGE_LOOP ( 'NONE', ( #51, #115 ) ) ;
#100 = AXIS2_PLACEMENT_3D ( 'NONE', #2, #164, #111 ) ;
#101 = PERSON_AND_ORGANIZATION ( #109, #233 ) ;
#102 = AXIS2_PLACEMENT_3D ( 'NONE', #59, #179, #245 ) ;
#103 = DIRECTION ( 'NONE',  ( 0.000000000000000000, 0.000000000000000000, 1.000000000000000000 ) ) ;
#104 = PERSON_AND_ORGANIZATION_ROLE ( 'design_owner' ) ;
#105 = CARTESIAN_POINT ( 'NONE',  ( 0.000000000000000000, 0.000000000000000000, 7.000000000000000000 ) ) ;
#106 = DIRECTION ( 'NONE',  ( 0.000000000000000000, 0.000000000000000000, 1.000000000000000000 ) ) ;
#107 = ADVANCED_FACE ( 'NONE', ( #61 ), #154, .T. ) ;
#108 = CARTESIAN_POINT ( 'NONE',  ( -9.000000000000001776, 0.000000000000000000, 7.000000000000000000 ) ) ;
#109 = PERSON ( 'NEURÈENÝ', 'NEURÈENÝ', 'NEURÈENÝ', ('NEURÈENÝ'), ('NEURÈENÝ'), ('NEURÈENÝ') ) ;
#110 = LINE ( 'NONE', #23, #241 ) ;
#111 = DIRECTION ( 'NONE',  ( -1.000000000000000000, 0.000000000000000000, 0.000000000000000000 ) ) ;
#112 = ORIENTED_EDGE ( 'NONE', *, *, #152, .F. ) ;
#113 = PERSON_AND_ORGANIZATION ( #109, #233 ) ;
#114 = APPROVAL_ROLE ( '' ) ;
#115 = ORIENTED_EDGE ( 'NONE', *, *, #30, .T. ) ;
#116 = ORIENTED_EDGE ( 'NONE', *, *, #30, .F. ) ;
#117 = VECTOR ( 'NONE', #242, 1000.000000000000000 ) ;
#118 = SECURITY_CLASSIFICATION_LEVEL ( 'unclassified' ) ;
#119 =( GEOMETRIC_REPRESENTATION_CONTEXT ( 3 ) GLOBAL_UNCERTAINTY_ASSIGNED_CONTEXT ( ( #196 ) ) GLOBAL_UNIT_ASSIGNED_CONTEXT ( ( #156, #140, #27 ) ) REPRESENTATION_CONTEXT ( 'NONE', 'WORKASPACE' ) );
#120 = CALENDAR_DATE ( 2023, 13, 2 ) ;
#121 = CARTESIAN_POINT ( 'NONE',  ( 0.000000000000000000, 0.000000000000000000, 160.0000000000000000 ) ) ;
#122 = CALENDAR_DATE ( 2023, 13, 2 ) ;
#123 = CIRCLE ( 'NONE', #180, 12.00000000000000178 ) ;
#124 = ADVANCED_FACE ( 'NONE', ( #129 ), #5, .T. ) ;
#125 = DIRECTION ( 'NONE',  ( 0.000000000000000000, 0.000000000000000000, 1.000000000000000000 ) ) ;
#126 = CARTESIAN_POINT ( 'NONE',  ( 12.00000000000000178, 1.469576158976824144E-15, 7.000000000000000000 ) ) ;
#127 = CC_DESIGN_PERSON_AND_ORGANIZATION_ASSIGNMENT ( #81, #177, ( #93 ) ) ;
#128 = APPROVAL_ROLE ( '' ) ;
#129 = FACE_OUTER_BOUND ( 'NONE', #167, .T. ) ;
#130 = CIRCLE ( 'NONE', #29, 12.00000000000000178 ) ;
#131 = FACE_OUTER_BOUND ( 'NONE', #136, .T. ) ;
#132 = CC_DESIGN_DATE_AND_TIME_ASSIGNMENT ( #161, #55, ( #195 ) ) ;
#133 = COORDINATED_UNIVERSAL_TIME_OFFSET ( 1, 0, .AHEAD. ) ;
#134 = CARTESIAN_POINT ( 'NONE',  ( 9.000000000000001776, 1.102182119232617911E-15, 7.000000000000000000 ) ) ;
#135 = AXIS2_PLACEMENT_3D ( 'NONE', #105, #205, #1 ) ;
#136 = EDGE_LOOP ( 'NONE', ( #71, #138, #68, #98 ) ) ;
#137 = CC_DESIGN_PERSON_AND_ORGANIZATION_ASSIGNMENT ( #200, #104, ( #234 ) ) ;
#138 = ORIENTED_EDGE ( 'NONE', *, *, #143, .T. ) ;
#139 = PERSON_AND_ORGANIZATION_ROLE ( 'creator' ) ;
#140 =( NAMED_UNIT ( * ) PLANE_ANGLE_UNIT ( ) SI_UNIT ( $, .RADIAN. ) );
#141 = DIRECTION ( 'NONE',  ( 1.000000000000000000, 0.000000000000000000, -0.000000000000000000 ) ) ;
#142 = FACE_OUTER_BOUND ( 'NONE', #99, .T. ) ;
#143 = EDGE_CURVE ( 'NONE', #211, #28, #155, .T. ) ;
#144 = VERTEX_POINT ( 'NONE', #149 ) ;
#145 = AXIS2_PLACEMENT_3D ( 'NONE', #18, #20, #39 ) ;
#146 = APPROVAL_DATE_TIME ( #160, #209 ) ;
#147 = ADVANCED_FACE ( 'NONE', ( #207 ), #36, .F. ) ;
#148 = AXIS2_PLACEMENT_3D ( 'NONE', #253, #8, #141 ) ;
#149 = CARTESIAN_POINT ( 'NONE',  ( -12.00000000000000178, 0.000000000000000000, 0.000000000000000000 ) ) ;
#150 = CARTESIAN_POINT ( 'NONE',  ( -12.00000000000000178, 0.000000000000000000, 7.000000000000000000 ) ) ;
#151 = APPROVAL_STATUS ( 'not_yet_approved' ) ;
#152 = EDGE_CURVE ( 'NONE', #157, #211, #123, .T. ) ;
#153 = CYLINDRICAL_SURFACE ( 'NONE', #145, 12.00000000000000178 ) ;
#154 = CYLINDRICAL_SURFACE ( 'NONE', #87, 12.00000000000000178 ) ;
#155 = LINE ( 'NONE', #88, #232 ) ;
#156 =( LENGTH_UNIT ( ) NAMED_UNIT ( * ) SI_UNIT ( .MILLI., .METRE. ) );
#157 = VERTEX_POINT ( 'NONE', #150 ) ;
#158 = CARTESIAN_POINT ( 'NONE',  ( 0.000000000000000000, 0.000000000000000000, 160.0000000000000000 ) ) ;
#159 = APPLICATION_CONTEXT ( 'configuration controlled 3d designs of mechanical parts and assemblies' ) ;
#160 = DATE_AND_TIME ( #122, #34 ) ;
#161 = DATE_AND_TIME ( #120, #26 ) ;
#162 = LOCAL_TIME ( 9, 46, 8.000000000000000000, #47 ) ;
#163 = CARTESIAN_POINT ( 'NONE',  ( -9.000000000000001776, 0.000000000000000000, 160.0000000000000000 ) ) ;
#164 = DIRECTION ( 'NONE',  ( -0.000000000000000000, -0.000000000000000000, -1.000000000000000000 ) ) ;
#165 = CLOSED_SHELL ( 'NONE', ( #236, #227, #107, #243, #147, #124, #37 ) ) ;
#166 = FACE_OUTER_BOUND ( 'NONE', #10, .T. ) ;
#167 = EDGE_LOOP ( 'NONE', ( #11, #231, #186, #66 ) ) ;
#168 = ORIENTED_EDGE ( 'NONE', *, *, #240, .F. ) ;
#169 = CC_DESIGN_PERSON_AND_ORGANIZATION_ASSIGNMENT ( #101, #77, ( #93 ) ) ;
#170 = CALENDAR_DATE ( 2023, 13, 2 ) ;
#171 = VERTEX_POINT ( 'NONE', #134 ) ;
#172 = CIRCLE ( 'NONE', #135, 9.000000000000001776 ) ;
#173 = DESIGN_CONTEXT ( 'detailed design', #159, 'design' ) ;
#174 = COORDINATED_UNIVERSAL_TIME_OFFSET ( 1, 0, .AHEAD. ) ;
#175 = DIRECTION ( 'NONE',  ( 0.000000000000000000, 0.000000000000000000, 1.000000000000000000 ) ) ;
#176 = AXIS2_PLACEMENT_3D ( 'NONE', #193, #221, #13 ) ;
#177 = PERSON_AND_ORGANIZATION_ROLE ( 'creator' ) ;
#178 = CC_DESIGN_PERSON_AND_ORGANIZATION_ASSIGNMENT ( #113, #139, ( #70 ) ) ;
#179 = DIRECTION ( 'NONE',  ( -0.000000000000000000, -0.000000000000000000, -1.000000000000000000 ) ) ;
#180 = AXIS2_PLACEMENT_3D ( 'NONE', #244, #125, #60 ) ;
#181 = LINE ( 'NONE', #163, #50 ) ;
#182 = DIRECTION ( 'NONE',  ( -1.000000000000000000, 0.000000000000000000, 0.000000000000000000 ) ) ;
#183 = FACE_BOUND ( 'NONE', #250, .T. ) ;
#184 = ADVANCED_BREP_SHAPE_REPRESENTATION ( 'b7d3', ( #197, #228 ), #119 ) ;
#185 = DIRECTION ( 'NONE',  ( 0.000000000000000000, 0.000000000000000000, 1.000000000000000000 ) ) ;
#186 = ORIENTED_EDGE ( 'NONE', *, *, #97, .T. ) ;
#187 = CC_DESIGN_PERSON_AND_ORGANIZATION_ASSIGNMENT ( #194, #238, ( #195 ) ) ;
#188 = DIRECTION ( 'NONE',  ( 0.000000000000000000, 0.000000000000000000, 1.000000000000000000 ) ) ;
#189 = ORIENTED_EDGE ( 'NONE', *, *, #212, .T. ) ;
#190 = CC_DESIGN_APPROVAL ( #219, ( #93 ) ) ;
#191 = ORIENTED_EDGE ( 'NONE', *, *, #12, .F. ) ;
#192 = ORIENTED_EDGE ( 'NONE', *, *, #252, .T. ) ;
#193 = CARTESIAN_POINT ( 'NONE',  ( 0.000000000000000000, 0.000000000000000000, 160.0000000000000000 ) ) ;
#194 = PERSON_AND_ORGANIZATION ( #109, #233 ) ;
#195 = SECURITY_CLASSIFICATION ( '', '', #118 ) ;
#196 = UNCERTAINTY_MEASURE_WITH_UNIT (LENGTH_MEASURE( 1.000000000000000082E-05 ), #156, 'distance_accuracy_value', 'NONE');
#197 = MANIFOLD_SOLID_BREP ( 'Pøidat vysunutím3', #165 ) ;
#198 = VERTEX_POINT ( 'NONE', #108 ) ;
#199 = AXIS2_PLACEMENT_3D ( 'NONE', #85, #62, #42 ) ;
#200 = PERSON_AND_ORGANIZATION ( #109, #233 ) ;
#201 = CARTESIAN_POINT ( 'NONE',  ( -12.00000000000000178, 0.000000000000000000, 7.000000000000000000 ) ) ;
#202 = PERSON_AND_ORGANIZATION ( #109, #233 ) ;
#203 = DIRECTION ( 'NONE',  ( -0.000000000000000000, -0.000000000000000000, -1.000000000000000000 ) ) ;
#204 = APPROVAL_PERSON_ORGANIZATION ( #72, #219, #114 ) ;
#205 = DIRECTION ( 'NONE',  ( 0.000000000000000000, 0.000000000000000000, 1.000000000000000000 ) ) ;
#206 = DIRECTION ( 'NONE',  ( 1.000000000000000000, 0.000000000000000000, 0.000000000000000000 ) ) ;
#207 = FACE_OUTER_BOUND ( 'NONE', #95, .T. ) ;
#208 = ORIENTED_EDGE ( 'NONE', *, *, #97, .F. ) ;
#209 = APPROVAL ( #254, 'NEURÈENÝ' ) ;
#210 = DIRECTION ( 'NONE',  ( 1.000000000000000000, 0.000000000000000000, 0.000000000000000000 ) ) ;
#211 = VERTEX_POINT ( 'NONE', #126 ) ;
#212 = EDGE_CURVE ( 'NONE', #90, #171, #110, .T. ) ;
#213 = ORIENTED_EDGE ( 'NONE', *, *, #252, .F. ) ;
#214 = CIRCLE ( 'NONE', #255, 9.000000000000001776 ) ;
#215 = APPROVAL_DATE_TIME ( #52, #19 ) ;
#216 = CARTESIAN_POINT ( 'NONE',  ( 0.000000000000000000, 0.000000000000000000, 0.000000000000000000 ) ) ;
#217 = COORDINATED_UNIVERSAL_TIME_OFFSET ( 1, 0, .AHEAD. ) ;
#218 = ORIENTED_EDGE ( 'NONE', *, *, #230, .F. ) ;
#219 = APPROVAL ( #25, 'NEURÈENÝ' ) ;
#220 = SHAPE_DEFINITION_REPRESENTATION ( #73, #184 ) ;
#221 = DIRECTION ( 'NONE',  ( 0.000000000000000000, 0.000000000000000000, 1.000000000000000000 ) ) ;
#222 = APPLICATION_PROTOCOL_DEFINITION ( 'international standard', 'config_control_design', 1994, #159 ) ;
#223 = DIRECTION ( 'NONE',  ( -0.000000000000000000, -0.000000000000000000, -1.000000000000000000 ) ) ;
#224 = CIRCLE ( 'NONE', #83, 12.00000000000000178 ) ;
#225 = CARTESIAN_POINT ( 'NONE',  ( 0.000000000000000000, 0.000000000000000000, 0.000000000000000000 ) ) ;
#226 = DIRECTION ( 'NONE',  ( -0.000000000000000000, -0.000000000000000000, -1.000000000000000000 ) ) ;
#227 = ADVANCED_FACE ( 'NONE', ( #131 ), #153, .T. ) ;
#228 = AXIS2_PLACEMENT_3D ( 'NONE', #74, #185, #89 ) ;
#229 = VERTEX_POINT ( 'NONE', #239 ) ;
#230 = EDGE_CURVE ( 'NONE', #198, #171, #172, .T. ) ;
#231 = ORIENTED_EDGE ( 'NONE', *, *, #65, .F. ) ;
#232 = VECTOR ( 'NONE', #226, 1000.000000000000000 ) ;
#233 = ORGANIZATION ( 'NEURÈENÝ', 'NEURÈENÝ', '' ) ;
#234 = PRODUCT ( 'b7d3', 'b7d3', '', ( #249 ) ) ;
#235 = DATE_AND_TIME ( #237, #24 ) ;
#236 = ADVANCED_FACE ( 'NONE', ( #21 ), #86, .T. ) ;
#237 = CALENDAR_DATE ( 2023, 13, 2 ) ;
#238 = PERSON_AND_ORGANIZATION_ROLE ( 'classification_officer' ) ;
#239 = CARTESIAN_POINT ( 'NONE',  ( -9.000000000000001776, 0.000000000000000000, 160.0000000000000000 ) ) ;
#240 = EDGE_CURVE ( 'NONE', #144, #28, #130, .T. ) ;
#241 = VECTOR ( 'NONE', #223, 1000.000000000000000 ) ;
#242 = DIRECTION ( 'NONE',  ( -0.000000000000000000, -0.000000000000000000, -1.000000000000000000 ) ) ;
#243 = ADVANCED_FACE ( 'NONE', ( #183, #166 ), #247, .T. ) ;
#244 = CARTESIAN_POINT ( 'NONE',  ( 0.000000000000000000, 0.000000000000000000, 7.000000000000000000 ) ) ;
#245 = DIRECTION ( 'NONE',  ( -1.000000000000000000, 0.000000000000000000, 0.000000000000000000 ) ) ;
#246 = CC_DESIGN_APPROVAL ( #19, ( #70 ) ) ;
#247 = PLANE ( 'NONE',  #148 ) ;
#248 = CALENDAR_DATE ( 2023, 13, 2 ) ;
#249 = MECHANICAL_CONTEXT ( 'NONE', #35, 'mechanical' ) ;
#250 = EDGE_LOOP ( 'NONE', ( #218, #213 ) ) ;
#251 = PRODUCT_RELATED_PRODUCT_CATEGORY ( 'detail', '', ( #234 ) ) ;
#252 = EDGE_CURVE ( 'NONE', #171, #198, #63, .T. ) ;
#253 = CARTESIAN_POINT ( 'NONE',  ( 0.000000000000000000, 0.000000000000000000, 7.000000000000000000 ) ) ;
#254 = APPROVAL_STATUS ( 'not_yet_approved' ) ;
#255 = AXIS2_PLACEMENT_3D ( 'NONE', #121, #175, #79 ) ;
ENDSEC;
END-ISO-10303-21;
