ISO-10303-21;
HEADER;
FILE_DESCRIPTION (( 'STEP AP203' ),
    '1' );
FILE_NAME ('7056.STEP',
    '2023-02-13T09:46:29',
    ( '' ),
    ( '' ),
    'SwSTEP 2.0',
    'SolidWorks 2019',
    '' );
FILE_SCHEMA (( 'CONFIG_CONTROL_DESIGN' ));
ENDSEC;

DATA;
#1 = APPROVAL ( #82, 'NEURÈENÝ' ) ;
#2 = AXIS2_PLACEMENT_3D ( 'NONE', #250, #233, #68 ) ;
#3 = COORDINATED_UNIVERSAL_TIME_OFFSET ( 1, 0, .AHEAD. ) ;
#4 = PERSON_AND_ORGANIZATION_ROLE ( 'classification_officer' ) ;
#5 = EDGE_CURVE ( 'NONE', #216, #135, #145, .T. ) ;
#6 = EDGE_LOOP ( 'NONE', ( #200, #62 ) ) ;
#7 = PERSON_AND_ORGANIZATION_ROLE ( 'creator' ) ;
#8 = DIRECTION ( 'NONE',  ( -0.000000000000000000, -0.000000000000000000, -1.000000000000000000 ) ) ;
#9 = ORIENTED_EDGE ( 'NONE', *, *, #96, .F. ) ;
#10 = FACE_BOUND ( 'NONE', #42, .T. ) ;
#11 = CC_DESIGN_APPROVAL ( #1, ( #15 ) ) ;
#12 = CARTESIAN_POINT ( 'NONE',  ( 8.000000000000000000, 9.797174393178825657E-16, 315.0000000000000000 ) ) ;
#13 = DATE_AND_TIME ( #227, #84 ) ;
#14 = PERSON_AND_ORGANIZATION ( #104, #107 ) ;
#15 = PRODUCT_DEFINITION ( 'NEZNÁMÝ', '', #231, #73 ) ;
#16 = CYLINDRICAL_SURFACE ( 'NONE', #25, 8.000000000000000000 ) ;
#17 = APPLICATION_PROTOCOL_DEFINITION ( 'international standard', 'config_control_design', 1994, #253 ) ;
#18 = LOCAL_TIME ( 10, 46, 29.00000000000000000, #52 ) ;
#19 = PRODUCT_DEFINITION_SHAPE ( 'NONE', 'NONE',  #15 ) ;
#20 = AXIS2_PLACEMENT_3D ( 'NONE', #167, #120, #204 ) ;
#21 = AXIS2_PLACEMENT_3D ( 'NONE', #31, #61, #243 ) ;
#22 = DATE_AND_TIME ( #191, #18 ) ;
#23 = ORIENTED_EDGE ( 'NONE', *, *, #34, .T. ) ;
#24 = LINE ( 'NONE', #95, #153 ) ;
#25 = AXIS2_PLACEMENT_3D ( 'NONE', #125, #185, #248 ) ;
#26 = APPLICATION_PROTOCOL_DEFINITION ( 'international standard', 'config_control_design', 1994, #127 ) ;
#27 = EDGE_LOOP ( 'NONE', ( #157, #132 ) ) ;
#28 = EDGE_CURVE ( 'NONE', #219, #74, #142, .T. ) ;
#29 = DIRECTION ( 'NONE',  ( 0.000000000000000000, 0.000000000000000000, 1.000000000000000000 ) ) ;
#30 = ORIENTED_EDGE ( 'NONE', *, *, #202, .T. ) ;
#31 = CARTESIAN_POINT ( 'NONE',  ( 0.000000000000000000, 0.000000000000000000, 0.000000000000000000 ) ) ;
#32 = LOCAL_TIME ( 10, 46, 29.00000000000000000, #106 ) ;
#33 = CYLINDRICAL_SURFACE ( 'NONE', #140, 11.00000000000000000 ) ;
#34 = EDGE_CURVE ( 'NONE', #79, #239, #70, .T. ) ;
#35 = PERSON_AND_ORGANIZATION_ROLE ( 'creator' ) ;
#36 = ADVANCED_FACE ( 'NONE', ( #69 ), #16, .T. ) ;
#37 = COORDINATED_UNIVERSAL_TIME_OFFSET ( 1, 0, .AHEAD. ) ;
#38 = CALENDAR_DATE ( 2023, 13, 2 ) ;
#39 = VECTOR ( 'NONE', #8, 1000.000000000000000 ) ;
#40 = CC_DESIGN_APPROVAL ( #123, ( #169 ) ) ;
#41 = APPROVAL_STATUS ( 'not_yet_approved' ) ;
#42 = EDGE_LOOP ( 'NONE', ( #9, #225 ) ) ;
#43 = DIRECTION ( 'NONE',  ( -0.000000000000000000, -0.000000000000000000, -1.000000000000000000 ) ) ;
#44 = ORIENTED_EDGE ( 'NONE', *, *, #166, .T. ) ;
#45 = DIRECTION ( 'NONE',  ( -0.000000000000000000, -0.000000000000000000, -1.000000000000000000 ) ) ;
#46 = DIRECTION ( 'NONE',  ( 0.000000000000000000, 0.000000000000000000, 1.000000000000000000 ) ) ;
#47 = ORIENTED_EDGE ( 'NONE', *, *, #237, .F. ) ;
#48 = CARTESIAN_POINT ( 'NONE',  ( -11.00000000000000000, 0.000000000000000000, 7.000000000000000000 ) ) ;
#49 = EDGE_CURVE ( 'NONE', #222, #219, #221, .T. ) ;
#50 = DIRECTION ( 'NONE',  ( 1.000000000000000000, 0.000000000000000000, 0.000000000000000000 ) ) ;
#51 = APPROVAL_PERSON_ORGANIZATION ( #218, #123, #212 ) ;
#52 = COORDINATED_UNIVERSAL_TIME_OFFSET ( 1, 0, .AHEAD. ) ;
#53 = PERSON_AND_ORGANIZATION ( #104, #107 ) ;
#54 = AXIS2_PLACEMENT_3D ( 'NONE', #136, #199, #195 ) ;
#55 = PRODUCT ( '7056', '7056', '', ( #172 ) ) ;
#56 = CIRCLE ( 'NONE', #255, 8.000000000000000000 ) ;
#57 = AXIS2_PLACEMENT_3D ( 'NONE', #236, #118, #241 ) ;
#58 = APPROVAL_ROLE ( '' ) ;
#59 = ORIENTED_EDGE ( 'NONE', *, *, #182, .T. ) ;
#60 = CARTESIAN_POINT ( 'NONE',  ( 8.000000000000000000, 9.797174393178825657E-16, 7.000000000000000000 ) ) ;
#61 = DIRECTION ( 'NONE',  ( 0.000000000000000000, 0.000000000000000000, 1.000000000000000000 ) ) ;
#62 = ORIENTED_EDGE ( 'NONE', *, *, #5, .T. ) ;
#63 = VECTOR ( 'NONE', #45, 1000.000000000000000 ) ;
#64 = CARTESIAN_POINT ( 'NONE',  ( -11.00000000000000000, 0.000000000000000000, 0.000000000000000000 ) ) ;
#65 = DIRECTION ( 'NONE',  ( 0.000000000000000000, 0.000000000000000000, 1.000000000000000000 ) ) ;
#66 = DIRECTION ( 'NONE',  ( 1.000000000000000000, 0.000000000000000000, 0.000000000000000000 ) ) ;
#67 = CC_DESIGN_DATE_AND_TIME_ASSIGNMENT ( #108, #192, ( #169 ) ) ;
#68 = DIRECTION ( 'NONE',  ( 1.000000000000000000, 0.000000000000000000, -0.000000000000000000 ) ) ;
#69 = FACE_OUTER_BOUND ( 'NONE', #141, .T. ) ;
#70 = CIRCLE ( 'NONE', #91, 11.00000000000000000 ) ;
#71 = CALENDAR_DATE ( 2023, 13, 2 ) ;
#72 = ORIENTED_EDGE ( 'NONE', *, *, #237, .T. ) ;
#73 = DESIGN_CONTEXT ( 'detailed design', #127, 'design' ) ;
#74 = VERTEX_POINT ( 'NONE', #252 ) ;
#75 = LINE ( 'NONE', #48, #63 ) ;
#76 = AXIS2_PLACEMENT_3D ( 'NONE', #119, #179, #158 ) ;
#77 = ORIENTED_EDGE ( 'NONE', *, *, #96, .T. ) ;
#78 = FACE_OUTER_BOUND ( 'NONE', #6, .T. ) ;
#79 = VERTEX_POINT ( 'NONE', #207 ) ;
#80 =( NAMED_UNIT ( * ) SI_UNIT ( $, .STERADIAN. ) SOLID_ANGLE_UNIT ( ) );
#81 = CC_DESIGN_PERSON_AND_ORGANIZATION_ASSIGNMENT ( #249, #205, ( #55 ) ) ;
#82 = APPROVAL_STATUS ( 'not_yet_approved' ) ;
#83 = CIRCLE ( 'NONE', #235, 8.000000000000000000 ) ;
#84 = LOCAL_TIME ( 10, 46, 29.00000000000000000, #37 ) ;
#85 = DIRECTION ( 'NONE',  ( 0.000000000000000000, 0.000000000000000000, 1.000000000000000000 ) ) ;
#86 = DATE_TIME_ROLE ( 'creation_date' ) ;
#87 = APPROVAL_PERSON_ORGANIZATION ( #134, #174, #58 ) ;
#88 = PERSON_AND_ORGANIZATION ( #104, #107 ) ;
#89 = PRODUCT_RELATED_PRODUCT_CATEGORY ( 'detail', '', ( #55 ) ) ;
#90 = DIRECTION ( 'NONE',  ( -0.000000000000000000, -0.000000000000000000, -1.000000000000000000 ) ) ;
#91 = AXIS2_PLACEMENT_3D ( 'NONE', #138, #29, #171 ) ;
#92 = EDGE_LOOP ( 'NONE', ( #242, #113, #240, #72 ) ) ;
#93 = DIRECTION ( 'NONE',  ( -1.000000000000000000, 0.000000000000000000, 0.000000000000000000 ) ) ;
#94 = DIRECTION ( 'NONE',  ( 1.000000000000000000, 0.000000000000000000, 0.000000000000000000 ) ) ;
#95 = CARTESIAN_POINT ( 'NONE',  ( 11.00000000000000000, 1.347111479062088405E-15, 7.000000000000000000 ) ) ;
#96 = EDGE_CURVE ( 'NONE', #74, #165, #56, .T. ) ;
#97 = ORIENTED_EDGE ( 'NONE', *, *, #126, .F. ) ;
#98 = VECTOR ( 'NONE', #139, 1000.000000000000000 ) ;
#99 = EDGE_LOOP ( 'NONE', ( #176, #44, #30, #160 ) ) ;
#100 = CIRCLE ( 'NONE', #21, 11.00000000000000000 ) ;
#101 = DIRECTION ( 'NONE',  ( -1.000000000000000000, 0.000000000000000000, 0.000000000000000000 ) ) ;
#102 = AXIS2_PLACEMENT_3D ( 'NONE', #226, #46, #201 ) ;
#103 = CC_DESIGN_PERSON_AND_ORGANIZATION_ASSIGNMENT ( #175, #156, ( #231 ) ) ;
#104 = PERSON ( 'NEURÈENÝ', 'NEURÈENÝ', 'NEURÈENÝ', ('NEURÈENÝ'), ('NEURÈENÝ'), ('NEURÈENÝ') ) ;
#105 = DATE_AND_TIME ( #38, #32 ) ;
#106 = COORDINATED_UNIVERSAL_TIME_OFFSET ( 1, 0, .AHEAD. ) ;
#107 = ORGANIZATION ( 'NEURÈENÝ', 'NEURÈENÝ', '' ) ;
#108 = DATE_AND_TIME ( #215, #146 ) ;
#109 = ADVANCED_FACE ( 'NONE', ( #232 ), #150, .T. ) ;
#110 = EDGE_LOOP ( 'NONE', ( #194, #59, #23, #178 ) ) ;
#111 = FACE_OUTER_BOUND ( 'NONE', #110, .T. ) ;
#112 = UNCERTAINTY_MEASURE_WITH_UNIT (LENGTH_MEASURE( 1.000000000000000082E-05 ), #234, 'distance_accuracy_value', 'NONE');
#113 = ORIENTED_EDGE ( 'NONE', *, *, #149, .F. ) ;
#114 = FACE_OUTER_BOUND ( 'NONE', #99, .T. ) ;
#115 = CC_DESIGN_SECURITY_CLASSIFICATION ( #169, ( #231 ) ) ;
#116 = CARTESIAN_POINT ( 'NONE',  ( 11.00000000000000000, 1.347111479062088405E-15, 7.000000000000000000 ) ) ;
#117 = ORIENTED_EDGE ( 'NONE', *, *, #28, .T. ) ;
#118 = DIRECTION ( 'NONE',  ( 0.000000000000000000, 0.000000000000000000, 1.000000000000000000 ) ) ;
#119 = CARTESIAN_POINT ( 'NONE',  ( 0.000000000000000000, 0.000000000000000000, 7.000000000000000000 ) ) ;
#120 = DIRECTION ( 'NONE',  ( 0.000000000000000000, 0.000000000000000000, 1.000000000000000000 ) ) ;
#121 =( NAMED_UNIT ( * ) PLANE_ANGLE_UNIT ( ) SI_UNIT ( $, .RADIAN. ) );
#122 = CLOSED_SHELL ( 'NONE', ( #230, #210, #144, #193, #254, #36, #109 ) ) ;
#123 = APPROVAL ( #159, 'NEURÈENÝ' ) ;
#124 = CC_DESIGN_APPROVAL ( #174, ( #231 ) ) ;
#125 = CARTESIAN_POINT ( 'NONE',  ( 0.000000000000000000, 0.000000000000000000, 315.0000000000000000 ) ) ;
#126 = EDGE_CURVE ( 'NONE', #219, #222, #83, .T. ) ;
#127 = APPLICATION_CONTEXT ( 'configuration controlled 3d designs of mechanical parts and assemblies' ) ;
#128 = PERSON_AND_ORGANIZATION ( #104, #107 ) ;
#129 = DATE_AND_TIME ( #71, #151 ) ;
#130 = CARTESIAN_POINT ( 'NONE',  ( 0.000000000000000000, 0.000000000000000000, 0.000000000000000000 ) ) ;
#131 = SECURITY_CLASSIFICATION_LEVEL ( 'unclassified' ) ;
#132 = ORIENTED_EDGE ( 'NONE', *, *, #49, .T. ) ;
#133 = CARTESIAN_POINT ( 'NONE',  ( 0.000000000000000000, 0.000000000000000000, 7.000000000000000000 ) ) ;
#134 = PERSON_AND_ORGANIZATION ( #104, #107 ) ;
#135 = VERTEX_POINT ( 'NONE', #208 ) ;
#136 = CARTESIAN_POINT ( 'NONE',  ( 0.000000000000000000, 0.000000000000000000, 7.000000000000000000 ) ) ;
#137 = SHAPE_DEFINITION_REPRESENTATION ( #19, #247 ) ;
#138 = CARTESIAN_POINT ( 'NONE',  ( 0.000000000000000000, 0.000000000000000000, 0.000000000000000000 ) ) ;
#139 = DIRECTION ( 'NONE',  ( -0.000000000000000000, -0.000000000000000000, -1.000000000000000000 ) ) ;
#140 = AXIS2_PLACEMENT_3D ( 'NONE', #229, #183, #101 ) ;
#141 = EDGE_LOOP ( 'NONE', ( #198, #97, #117, #77 ) ) ;
#142 = LINE ( 'NONE', #181, #39 ) ;
#143 = FACE_OUTER_BOUND ( 'NONE', #92, .T. ) ;
#144 = ADVANCED_FACE ( 'NONE', ( #143 ), #33, .T. ) ;
#145 = CIRCLE ( 'NONE', #211, 11.00000000000000000 ) ;
#146 = LOCAL_TIME ( 10, 46, 29.00000000000000000, #238 ) ;
#147 = APPROVAL_ROLE ( '' ) ;
#148 = CARTESIAN_POINT ( 'NONE',  ( 0.000000000000000000, 0.000000000000000000, 315.0000000000000000 ) ) ;
#149 = EDGE_CURVE ( 'NONE', #135, #216, #214, .T. ) ;
#150 = PLANE ( 'NONE',  #2 ) ;
#151 = LOCAL_TIME ( 10, 46, 29.00000000000000000, #3 ) ;
#152 = AXIS2_PLACEMENT_3D ( 'NONE', #133, #217, #220 ) ;
#153 = VECTOR ( 'NONE', #90, 1000.000000000000000 ) ;
#154 = CC_DESIGN_DATE_AND_TIME_ASSIGNMENT ( #105, #86, ( #15 ) ) ;
#155 = PLANE ( 'NONE',  #54 ) ;
#156 = PERSON_AND_ORGANIZATION_ROLE ( 'design_supplier' ) ;
#157 = ORIENTED_EDGE ( 'NONE', *, *, #126, .T. ) ;
#158 = DIRECTION ( 'NONE',  ( 1.000000000000000000, 0.000000000000000000, 0.000000000000000000 ) ) ;
#159 = APPROVAL_STATUS ( 'not_yet_approved' ) ;
#160 = ORIENTED_EDGE ( 'NONE', *, *, #28, .F. ) ;
#161 = LINE ( 'NONE', #12, #98 ) ;
#162 = ORIENTED_EDGE ( 'NONE', *, *, #34, .F. ) ;
#163 = CARTESIAN_POINT ( 'NONE',  ( 8.000000000000000000, 9.797174393178825657E-16, 315.0000000000000000 ) ) ;
#164 = CYLINDRICAL_SURFACE ( 'NONE', #209, 8.000000000000000000 ) ;
#165 = VERTEX_POINT ( 'NONE', #60 ) ;
#166 = EDGE_CURVE ( 'NONE', #222, #165, #161, .T. ) ;
#167 = CARTESIAN_POINT ( 'NONE',  ( 0.000000000000000000, 0.000000000000000000, 315.0000000000000000 ) ) ;
#168 = DIRECTION ( 'NONE',  ( 0.000000000000000000, 0.000000000000000000, 1.000000000000000000 ) ) ;
#169 = SECURITY_CLASSIFICATION ( '', '', #131 ) ;
#170 = DIRECTION ( 'NONE',  ( 0.000000000000000000, 0.000000000000000000, 1.000000000000000000 ) ) ;
#171 = DIRECTION ( 'NONE',  ( 1.000000000000000000, 0.000000000000000000, 0.000000000000000000 ) ) ;
#172 = MECHANICAL_CONTEXT ( 'NONE', #253, 'mechanical' ) ;
#173 = APPROVAL_PERSON_ORGANIZATION ( #14, #1, #147 ) ;
#174 = APPROVAL ( #41, 'NEURÈENÝ' ) ;
#175 = PERSON_AND_ORGANIZATION ( #104, #107 ) ;
#176 = ORIENTED_EDGE ( 'NONE', *, *, #49, .F. ) ;
#177 = EDGE_CURVE ( 'NONE', #135, #239, #75, .T. ) ;
#178 = ORIENTED_EDGE ( 'NONE', *, *, #177, .F. ) ;
#179 = DIRECTION ( 'NONE',  ( 0.000000000000000000, 0.000000000000000000, 1.000000000000000000 ) ) ;
#180 = EDGE_LOOP ( 'NONE', ( #47, #162 ) ) ;
#181 = CARTESIAN_POINT ( 'NONE',  ( -8.000000000000000000, 0.000000000000000000, 315.0000000000000000 ) ) ;
#182 = EDGE_CURVE ( 'NONE', #216, #79, #24, .T. ) ;
#183 = DIRECTION ( 'NONE',  ( -0.000000000000000000, -0.000000000000000000, -1.000000000000000000 ) ) ;
#184 =( GEOMETRIC_REPRESENTATION_CONTEXT ( 3 ) GLOBAL_UNCERTAINTY_ASSIGNED_CONTEXT ( ( #112 ) ) GLOBAL_UNIT_ASSIGNED_CONTEXT ( ( #234, #121, #80 ) ) REPRESENTATION_CONTEXT ( 'NONE', 'WORKASPACE' ) );
#185 = DIRECTION ( 'NONE',  ( -0.000000000000000000, -0.000000000000000000, -1.000000000000000000 ) ) ;
#186 = CC_DESIGN_PERSON_AND_ORGANIZATION_ASSIGNMENT ( #128, #4, ( #169 ) ) ;
#187 = AXIS2_PLACEMENT_3D ( 'NONE', #130, #85, #188 ) ;
#188 = DIRECTION ( 'NONE',  ( 1.000000000000000000, 0.000000000000000000, 0.000000000000000000 ) ) ;
#189 = CIRCLE ( 'NONE', #57, 8.000000000000000000 ) ;
#190 = APPROVAL_DATE_TIME ( #129, #174 ) ;
#191 = CALENDAR_DATE ( 2023, 13, 2 ) ;
#192 = DATE_TIME_ROLE ( 'classification_date' ) ;
#193 = ADVANCED_FACE ( 'NONE', ( #10, #78 ), #155, .T. ) ;
#194 = ORIENTED_EDGE ( 'NONE', *, *, #5, .F. ) ;
#195 = DIRECTION ( 'NONE',  ( 1.000000000000000000, 0.000000000000000000, -0.000000000000000000 ) ) ;
#196 = CARTESIAN_POINT ( 'NONE',  ( 0.000000000000000000, 0.000000000000000000, 315.0000000000000000 ) ) ;
#197 = APPROVAL_DATE_TIME ( #13, #123 ) ;
#198 = ORIENTED_EDGE ( 'NONE', *, *, #166, .F. ) ;
#199 = DIRECTION ( 'NONE',  ( 0.000000000000000000, 0.000000000000000000, 1.000000000000000000 ) ) ;
#200 = ORIENTED_EDGE ( 'NONE', *, *, #149, .T. ) ;
#201 = DIRECTION ( 'NONE',  ( 1.000000000000000000, 0.000000000000000000, -0.000000000000000000 ) ) ;
#202 = EDGE_CURVE ( 'NONE', #165, #74, #189, .T. ) ;
#203 = CARTESIAN_POINT ( 'NONE',  ( -8.000000000000000000, 0.000000000000000000, 315.0000000000000000 ) ) ;
#204 = DIRECTION ( 'NONE',  ( 1.000000000000000000, 0.000000000000000000, 0.000000000000000000 ) ) ;
#205 = PERSON_AND_ORGANIZATION_ROLE ( 'design_owner' ) ;
#206 = CC_DESIGN_PERSON_AND_ORGANIZATION_ASSIGNMENT ( #88, #7, ( #231 ) ) ;
#207 = CARTESIAN_POINT ( 'NONE',  ( 11.00000000000000000, 1.347111479062088405E-15, 0.000000000000000000 ) ) ;
#208 = CARTESIAN_POINT ( 'NONE',  ( -11.00000000000000000, 0.000000000000000000, 7.000000000000000000 ) ) ;
#209 = AXIS2_PLACEMENT_3D ( 'NONE', #196, #43, #93 ) ;
#210 = ADVANCED_FACE ( 'NONE', ( #111 ), #223, .T. ) ;
#211 = AXIS2_PLACEMENT_3D ( 'NONE', #244, #65, #94 ) ;
#212 = APPROVAL_ROLE ( '' ) ;
#213 = CC_DESIGN_PERSON_AND_ORGANIZATION_ASSIGNMENT ( #53, #35, ( #15 ) ) ;
#214 = CIRCLE ( 'NONE', #76, 11.00000000000000000 ) ;
#215 = CALENDAR_DATE ( 2023, 13, 2 ) ;
#216 = VERTEX_POINT ( 'NONE', #116 ) ;
#217 = DIRECTION ( 'NONE',  ( -0.000000000000000000, -0.000000000000000000, -1.000000000000000000 ) ) ;
#218 = PERSON_AND_ORGANIZATION ( #104, #107 ) ;
#219 = VERTEX_POINT ( 'NONE', #203 ) ;
#220 = DIRECTION ( 'NONE',  ( -1.000000000000000000, 0.000000000000000000, 0.000000000000000000 ) ) ;
#221 = CIRCLE ( 'NONE', #20, 8.000000000000000000 ) ;
#222 = VERTEX_POINT ( 'NONE', #163 ) ;
#223 = CYLINDRICAL_SURFACE ( 'NONE', #152, 11.00000000000000000 ) ;
#224 = MANIFOLD_SOLID_BREP ( 'Pøidat vysunutím3', #122 ) ;
#225 = ORIENTED_EDGE ( 'NONE', *, *, #202, .F. ) ;
#226 = CARTESIAN_POINT ( 'NONE',  ( 0.000000000000000000, 0.000000000000000000, 0.000000000000000000 ) ) ;
#227 = CALENDAR_DATE ( 2023, 13, 2 ) ;
#228 = PLANE ( 'NONE',  #102 ) ;
#229 = CARTESIAN_POINT ( 'NONE',  ( 0.000000000000000000, 0.000000000000000000, 7.000000000000000000 ) ) ;
#230 = ADVANCED_FACE ( 'NONE', ( #114 ), #164, .T. ) ;
#231 = PRODUCT_DEFINITION_FORMATION_WITH_SPECIFIED_SOURCE ( 'LIBOVOLNÝ', '', #55, .NOT_KNOWN. ) ;
#232 = FACE_OUTER_BOUND ( 'NONE', #27, .T. ) ;
#233 = DIRECTION ( 'NONE',  ( 0.000000000000000000, 0.000000000000000000, 1.000000000000000000 ) ) ;
#234 =( LENGTH_UNIT ( ) NAMED_UNIT ( * ) SI_UNIT ( .MILLI., .METRE. ) );
#235 = AXIS2_PLACEMENT_3D ( 'NONE', #148, #170, #50 ) ;
#236 = CARTESIAN_POINT ( 'NONE',  ( 0.000000000000000000, 0.000000000000000000, 7.000000000000000000 ) ) ;
#237 = EDGE_CURVE ( 'NONE', #239, #79, #100, .T. ) ;
#238 = COORDINATED_UNIVERSAL_TIME_OFFSET ( 1, 0, .AHEAD. ) ;
#239 = VERTEX_POINT ( 'NONE', #64 ) ;
#240 = ORIENTED_EDGE ( 'NONE', *, *, #177, .T. ) ;
#241 = DIRECTION ( 'NONE',  ( 1.000000000000000000, 0.000000000000000000, 0.000000000000000000 ) ) ;
#242 = ORIENTED_EDGE ( 'NONE', *, *, #182, .F. ) ;
#243 = DIRECTION ( 'NONE',  ( 1.000000000000000000, 0.000000000000000000, 0.000000000000000000 ) ) ;
#244 = CARTESIAN_POINT ( 'NONE',  ( 0.000000000000000000, 0.000000000000000000, 7.000000000000000000 ) ) ;
#245 = FACE_OUTER_BOUND ( 'NONE', #180, .T. ) ;
#246 = CARTESIAN_POINT ( 'NONE',  ( 0.000000000000000000, 0.000000000000000000, 7.000000000000000000 ) ) ;
#247 = ADVANCED_BREP_SHAPE_REPRESENTATION ( '7056', ( #224, #187 ), #184 ) ;
#248 = DIRECTION ( 'NONE',  ( -1.000000000000000000, 0.000000000000000000, 0.000000000000000000 ) ) ;
#249 = PERSON_AND_ORGANIZATION ( #104, #107 ) ;
#250 = CARTESIAN_POINT ( 'NONE',  ( 0.000000000000000000, 0.000000000000000000, 315.0000000000000000 ) ) ;
#251 = APPROVAL_DATE_TIME ( #22, #1 ) ;
#252 = CARTESIAN_POINT ( 'NONE',  ( -8.000000000000000000, 0.000000000000000000, 7.000000000000000000 ) ) ;
#253 = APPLICATION_CONTEXT ( 'configuration controlled 3d designs of mechanical parts and assemblies' ) ;
#254 = ADVANCED_FACE ( 'NONE', ( #245 ), #228, .F. ) ;
#255 = AXIS2_PLACEMENT_3D ( 'NONE', #246, #168, #66 ) ;
ENDSEC;
END-ISO-10303-21;
