ISO-10303-21;
HEADER;
FILE_DESCRIPTION (( 'STEP AP203' ),
    '1' );
FILE_NAME ('0882.STEP',
    '2023-02-13T09:50:21',
    ( '' ),
    ( '' ),
    'SwSTEP 2.0',
    'SolidWorks 2019',
    '' );
FILE_SCHEMA (( 'CONFIG_CONTROL_DESIGN' ));
ENDSEC;

DATA;
#1 = FACE_OUTER_BOUND ( 'NONE', #99, .T. ) ;
#2 = APPROVAL_PERSON_ORGANIZATION ( #222, #145, #122 ) ;
#3 = CYLINDRICAL_SURFACE ( 'NONE', #64, 7.500000000000000000 ) ;
#4 = CARTESIAN_POINT ( 'NONE',  ( 7.500000000000000000, 9.184850993605147944E-16, 7.000000000000000000 ) ) ;
#5 = CARTESIAN_POINT ( 'NONE',  ( -11.00000000000000000, 0.000000000000000000, 7.000000000000000000 ) ) ;
#6 = PRODUCT_DEFINITION_FORMATION_WITH_SPECIFIED_SOURCE ( 'LIBOVOLNÝ', '', #163, .NOT_KNOWN. ) ;
#7 = FACE_OUTER_BOUND ( 'NONE', #46, .T. ) ;
#8 = CARTESIAN_POINT ( 'NONE',  ( 7.500000000000000000, 9.184850993605147944E-16, 200.0000000000000000 ) ) ;
#9 = COORDINATED_UNIVERSAL_TIME_OFFSET ( 1, 0, .AHEAD. ) ;
#10 = DIRECTION ( 'NONE',  ( 0.000000000000000000, 0.000000000000000000, 1.000000000000000000 ) ) ;
#11 = EDGE_CURVE ( 'NONE', #23, #104, #214, .T. ) ;
#12 = VECTOR ( 'NONE', #100, 1000.000000000000000 ) ;
#13 = AXIS2_PLACEMENT_3D ( 'NONE', #245, #178, #14 ) ;
#14 = DIRECTION ( 'NONE',  ( -1.000000000000000000, 0.000000000000000000, 0.000000000000000000 ) ) ;
#15 = PERSON_AND_ORGANIZATION ( #242, #140 ) ;
#16 = SECURITY_CLASSIFICATION_LEVEL ( 'unclassified' ) ;
#17 = CC_DESIGN_PERSON_AND_ORGANIZATION_ASSIGNMENT ( #18, #253, ( #188 ) ) ;
#18 = PERSON_AND_ORGANIZATION ( #242, #140 ) ;
#19 = PERSON_AND_ORGANIZATION ( #242, #140 ) ;
#20 = CIRCLE ( 'NONE', #194, 7.500000000000000000 ) ;
#21 = ORIENTED_EDGE ( 'NONE', *, *, #116, .F. ) ;
#22 = SHAPE_DEFINITION_REPRESENTATION ( #182, #153 ) ;
#23 = VERTEX_POINT ( 'NONE', #211 ) ;
#24 = EDGE_CURVE ( 'NONE', #205, #114, #67, .T. ) ;
#25 = AXIS2_PLACEMENT_3D ( 'NONE', #246, #10, #91 ) ;
#26 = EDGE_LOOP ( 'NONE', ( #238, #60 ) ) ;
#27 = DIRECTION ( 'NONE',  ( 0.000000000000000000, 0.000000000000000000, 1.000000000000000000 ) ) ;
#28 = EDGE_CURVE ( 'NONE', #117, #23, #232, .T. ) ;
#29 = FACE_OUTER_BOUND ( 'NONE', #26, .T. ) ;
#30 = CARTESIAN_POINT ( 'NONE',  ( 11.00000000000000000, 1.347111479062088405E-15, 0.000000000000000000 ) ) ;
#31 = CARTESIAN_POINT ( 'NONE',  ( -7.500000000000000000, 0.000000000000000000, 7.000000000000000000 ) ) ;
#32 = CC_DESIGN_PERSON_AND_ORGANIZATION_ASSIGNMENT ( #111, #180, ( #6 ) ) ;
#33 = DIRECTION ( 'NONE',  ( -0.000000000000000000, -0.000000000000000000, -1.000000000000000000 ) ) ;
#34 = EDGE_CURVE ( 'NONE', #117, #38, #39, .T. ) ;
#35 = PERSON_AND_ORGANIZATION_ROLE ( 'creator' ) ;
#36 = DESIGN_CONTEXT ( 'detailed design', #44, 'design' ) ;
#37 = ORIENTED_EDGE ( 'NONE', *, *, #70, .T. ) ;
#38 = VERTEX_POINT ( 'NONE', #82 ) ;
#39 = LINE ( 'NONE', #5, #239 ) ;
#40 = DATE_AND_TIME ( #228, #68 ) ;
#41 = CARTESIAN_POINT ( 'NONE',  ( 0.000000000000000000, 0.000000000000000000, 7.000000000000000000 ) ) ;
#42 = VERTEX_POINT ( 'NONE', #170 ) ;
#43 = APPROVAL_PERSON_ORGANIZATION ( #15, #229, #123 ) ;
#44 = APPLICATION_CONTEXT ( 'configuration controlled 3d designs of mechanical parts and assemblies' ) ;
#45 = DIRECTION ( 'NONE',  ( 0.000000000000000000, 0.000000000000000000, 1.000000000000000000 ) ) ;
#46 = EDGE_LOOP ( 'NONE', ( #21, #168 ) ) ;
#47 = AXIS2_PLACEMENT_3D ( 'NONE', #85, #27, #105 ) ;
#48 =( LENGTH_UNIT ( ) NAMED_UNIT ( * ) SI_UNIT ( .MILLI., .METRE. ) );
#49 = APPROVAL_STATUS ( 'not_yet_approved' ) ;
#50 = CYLINDRICAL_SURFACE ( 'NONE', #172, 11.00000000000000000 ) ;
#51 = APPROVAL_STATUS ( 'not_yet_approved' ) ;
#52 = CC_DESIGN_PERSON_AND_ORGANIZATION_ASSIGNMENT ( #251, #199, ( #138 ) ) ;
#53 = AXIS2_PLACEMENT_3D ( 'NONE', #147, #231, #57 ) ;
#54 = DATE_AND_TIME ( #144, #137 ) ;
#55 = DIRECTION ( 'NONE',  ( 0.000000000000000000, 0.000000000000000000, 1.000000000000000000 ) ) ;
#56 =( NAMED_UNIT ( * ) SI_UNIT ( $, .STERADIAN. ) SOLID_ANGLE_UNIT ( ) );
#57 = DIRECTION ( 'NONE',  ( 1.000000000000000000, 0.000000000000000000, 0.000000000000000000 ) ) ;
#58 = APPROVAL_ROLE ( '' ) ;
#59 = ADVANCED_FACE ( 'NONE', ( #195 ), #115, .T. ) ;
#60 = ORIENTED_EDGE ( 'NONE', *, *, #78, .T. ) ;
#61 = CC_DESIGN_PERSON_AND_ORGANIZATION_ASSIGNMENT ( #183, #35, ( #6 ) ) ;
#62 = ORIENTED_EDGE ( 'NONE', *, *, #185, .F. ) ;
#63 = DATE_TIME_ROLE ( 'classification_date' ) ;
#64 = AXIS2_PLACEMENT_3D ( 'NONE', #84, #66, #135 ) ;
#65 = VERTEX_POINT ( 'NONE', #4 ) ;
#66 = DIRECTION ( 'NONE',  ( -0.000000000000000000, -0.000000000000000000, -1.000000000000000000 ) ) ;
#67 = LINE ( 'NONE', #171, #226 ) ;
#68 = LOCAL_TIME ( 10, 50, 21.00000000000000000, #77 ) ;
#69 = DIRECTION ( 'NONE',  ( 1.000000000000000000, 0.000000000000000000, 0.000000000000000000 ) ) ;
#70 = EDGE_CURVE ( 'NONE', #65, #114, #155, .T. ) ;
#71 = AXIS2_PLACEMENT_3D ( 'NONE', #255, #55, #161 ) ;
#72 = CARTESIAN_POINT ( 'NONE',  ( 0.000000000000000000, 0.000000000000000000, 0.000000000000000000 ) ) ;
#73 = ADVANCED_FACE ( 'NONE', ( #1 ), #3, .T. ) ;
#74 = CARTESIAN_POINT ( 'NONE',  ( -7.500000000000000000, 0.000000000000000000, 200.0000000000000000 ) ) ;
#75 = COORDINATED_UNIVERSAL_TIME_OFFSET ( 1, 0, .AHEAD. ) ;
#76 = AXIS2_PLACEMENT_3D ( 'NONE', #119, #196, #218 ) ;
#77 = COORDINATED_UNIVERSAL_TIME_OFFSET ( 1, 0, .AHEAD. ) ;
#78 = EDGE_CURVE ( 'NONE', #23, #117, #235, .T. ) ;
#79 = AXIS2_PLACEMENT_3D ( 'NONE', #72, #227, #142 ) ;
#80 = CC_DESIGN_SECURITY_CLASSIFICATION ( #188, ( #6 ) ) ;
#81 = APPROVAL_DATE_TIME ( #131, #219 ) ;
#82 = CARTESIAN_POINT ( 'NONE',  ( -11.00000000000000000, 0.000000000000000000, 0.000000000000000000 ) ) ;
#83 = CIRCLE ( 'NONE', #25, 11.00000000000000000 ) ;
#84 = CARTESIAN_POINT ( 'NONE',  ( 0.000000000000000000, 0.000000000000000000, 200.0000000000000000 ) ) ;
#85 = CARTESIAN_POINT ( 'NONE',  ( 0.000000000000000000, 0.000000000000000000, 7.000000000000000000 ) ) ;
#86 = CARTESIAN_POINT ( 'NONE',  ( 0.000000000000000000, 0.000000000000000000, 200.0000000000000000 ) ) ;
#87 = DIRECTION ( 'NONE',  ( -0.000000000000000000, -0.000000000000000000, -1.000000000000000000 ) ) ;
#88 = CARTESIAN_POINT ( 'NONE',  ( 0.000000000000000000, 0.000000000000000000, 0.000000000000000000 ) ) ;
#89 = CARTESIAN_POINT ( 'NONE',  ( 0.000000000000000000, 0.000000000000000000, 0.000000000000000000 ) ) ;
#90 = AXIS2_PLACEMENT_3D ( 'NONE', #86, #154, #69 ) ;
#91 = DIRECTION ( 'NONE',  ( 1.000000000000000000, 0.000000000000000000, 0.000000000000000000 ) ) ;
#92 = DATE_AND_TIME ( #204, #120 ) ;
#93 = COORDINATED_UNIVERSAL_TIME_OFFSET ( 1, 0, .AHEAD. ) ;
#94 = EDGE_CURVE ( 'NONE', #42, #205, #240, .T. ) ;
#95 = COORDINATED_UNIVERSAL_TIME_OFFSET ( 1, 0, .AHEAD. ) ;
#96 = CLOSED_SHELL ( 'NONE', ( #73, #59, #197, #103, #149, #254, #225 ) ) ;
#97 = ORIENTED_EDGE ( 'NONE', *, *, #134, .T. ) ;
#98 = LOCAL_TIME ( 10, 50, 21.00000000000000000, #95 ) ;
#99 = EDGE_LOOP ( 'NONE', ( #186, #97, #37, #209 ) ) ;
#100 = DIRECTION ( 'NONE',  ( -0.000000000000000000, -0.000000000000000000, -1.000000000000000000 ) ) ;
#101 = CARTESIAN_POINT ( 'NONE',  ( 0.000000000000000000, 0.000000000000000000, 7.000000000000000000 ) ) ;
#102 = APPROVAL_PERSON_ORGANIZATION ( #19, #219, #58 ) ;
#103 = ADVANCED_FACE ( 'NONE', ( #139, #29 ), #217, .T. ) ;
#104 = VERTEX_POINT ( 'NONE', #30 ) ;
#105 = DIRECTION ( 'NONE',  ( 1.000000000000000000, 0.000000000000000000, 0.000000000000000000 ) ) ;
#106 = EDGE_LOOP ( 'NONE', ( #112, #129, #165, #152 ) ) ;
#107 = CC_DESIGN_APPROVAL ( #229, ( #138 ) ) ;
#108 = CARTESIAN_POINT ( 'NONE',  ( -11.00000000000000000, 0.000000000000000000, 7.000000000000000000 ) ) ;
#109 = LOCAL_TIME ( 10, 50, 21.00000000000000000, #9 ) ;
#110 = PLANE ( 'NONE',  #164 ) ;
#111 = PERSON_AND_ORGANIZATION ( #242, #140 ) ;
#112 = ORIENTED_EDGE ( 'NONE', *, *, #78, .F. ) ;
#113 = ORIENTED_EDGE ( 'NONE', *, *, #11, .F. ) ;
#114 = VERTEX_POINT ( 'NONE', #31 ) ;
#115 = CYLINDRICAL_SURFACE ( 'NONE', #187, 11.00000000000000000 ) ;
#116 = EDGE_CURVE ( 'NONE', #38, #104, #216, .T. ) ;
#117 = VERTEX_POINT ( 'NONE', #108 ) ;
#118 = ORIENTED_EDGE ( 'NONE', *, *, #243, .T. ) ;
#119 = CARTESIAN_POINT ( 'NONE',  ( 0.000000000000000000, 0.000000000000000000, 7.000000000000000000 ) ) ;
#120 = LOCAL_TIME ( 10, 50, 21.00000000000000000, #75 ) ;
#121 = PERSON_AND_ORGANIZATION ( #242, #140 ) ;
#122 = APPROVAL_ROLE ( '' ) ;
#123 = APPROVAL_ROLE ( '' ) ;
#124 = CC_DESIGN_APPROVAL ( #219, ( #188 ) ) ;
#125 = LINE ( 'NONE', #8, #220 ) ;
#126 = APPROVAL_DATE_TIME ( #54, #145 ) ;
#127 = ORIENTED_EDGE ( 'NONE', *, *, #34, .T. ) ;
#128 = APPLICATION_PROTOCOL_DEFINITION ( 'international standard', 'config_control_design', 1994, #44 ) ;
#129 = ORIENTED_EDGE ( 'NONE', *, *, #11, .T. ) ;
#130 = FACE_OUTER_BOUND ( 'NONE', #150, .T. ) ;
#131 = DATE_AND_TIME ( #207, #98 ) ;
#132 = DIRECTION ( 'NONE',  ( 1.000000000000000000, 0.000000000000000000, 0.000000000000000000 ) ) ;
#133 = ORIENTED_EDGE ( 'NONE', *, *, #70, .F. ) ;
#134 = EDGE_CURVE ( 'NONE', #42, #65, #125, .T. ) ;
#135 = DIRECTION ( 'NONE',  ( -1.000000000000000000, 0.000000000000000000, 0.000000000000000000 ) ) ;
#136 = DIRECTION ( 'NONE',  ( -0.000000000000000000, -0.000000000000000000, -1.000000000000000000 ) ) ;
#137 = LOCAL_TIME ( 10, 50, 21.00000000000000000, #93 ) ;
#138 = PRODUCT_DEFINITION ( 'NEZNÁMÝ', '', #6, #36 ) ;
#139 = FACE_BOUND ( 'NONE', #189, .T. ) ;
#140 = ORGANIZATION ( 'NEURÈENÝ', 'NEURÈENÝ', '' ) ;
#141 = FACE_OUTER_BOUND ( 'NONE', #169, .T. ) ;
#142 = DIRECTION ( 'NONE',  ( 1.000000000000000000, 0.000000000000000000, 0.000000000000000000 ) ) ;
#143 = FACE_OUTER_BOUND ( 'NONE', #191, .T. ) ;
#144 = CALENDAR_DATE ( 2023, 13, 2 ) ;
#145 = APPROVAL ( #49, 'NEURÈENÝ' ) ;
#146 = ORIENTED_EDGE ( 'NONE', *, *, #134, .F. ) ;
#147 = CARTESIAN_POINT ( 'NONE',  ( 0.000000000000000000, 0.000000000000000000, 7.000000000000000000 ) ) ;
#148 = UNCERTAINTY_MEASURE_WITH_UNIT (LENGTH_MEASURE( 1.000000000000000082E-05 ), #48, 'distance_accuracy_value', 'NONE');
#149 = ADVANCED_FACE ( 'NONE', ( #7 ), #110, .F. ) ;
#150 = EDGE_LOOP ( 'NONE', ( #146, #62, #230, #118 ) ) ;
#151 = CARTESIAN_POINT ( 'NONE',  ( 11.00000000000000000, 1.347111479062088405E-15, 7.000000000000000000 ) ) ;
#152 = ORIENTED_EDGE ( 'NONE', *, *, #34, .F. ) ;
#153 = ADVANCED_BREP_SHAPE_REPRESENTATION ( '0882', ( #206, #79 ), #210 ) ;
#154 = DIRECTION ( 'NONE',  ( 0.000000000000000000, 0.000000000000000000, 1.000000000000000000 ) ) ;
#155 = CIRCLE ( 'NONE', #156, 7.500000000000000000 ) ;
#156 = AXIS2_PLACEMENT_3D ( 'NONE', #167, #45, #237 ) ;
#157 = DIRECTION ( 'NONE',  ( 1.000000000000000000, 0.000000000000000000, -0.000000000000000000 ) ) ;
#158 = CARTESIAN_POINT ( 'NONE',  ( 0.000000000000000000, 0.000000000000000000, 200.0000000000000000 ) ) ;
#159 = APPROVAL_DATE_TIME ( #202, #229 ) ;
#160 = CYLINDRICAL_SURFACE ( 'NONE', #13, 7.500000000000000000 ) ;
#161 = DIRECTION ( 'NONE',  ( 1.000000000000000000, 0.000000000000000000, -0.000000000000000000 ) ) ;
#162 = EDGE_CURVE ( 'NONE', #104, #38, #83, .T. ) ;
#163 = PRODUCT ( '0882', '0882', '', ( #176 ) ) ;
#164 = AXIS2_PLACEMENT_3D ( 'NONE', #88, #177, #157 ) ;
#165 = ORIENTED_EDGE ( 'NONE', *, *, #162, .T. ) ;
#166 = PRODUCT_RELATED_PRODUCT_CATEGORY ( 'detail', '', ( #163 ) ) ;
#167 = CARTESIAN_POINT ( 'NONE',  ( 0.000000000000000000, 0.000000000000000000, 7.000000000000000000 ) ) ;
#168 = ORIENTED_EDGE ( 'NONE', *, *, #162, .F. ) ;
#169 = EDGE_LOOP ( 'NONE', ( #113, #213, #127, #234 ) ) ;
#170 = CARTESIAN_POINT ( 'NONE',  ( 7.500000000000000000, 9.184850993605147944E-16, 200.0000000000000000 ) ) ;
#171 = CARTESIAN_POINT ( 'NONE',  ( -7.500000000000000000, 0.000000000000000000, 200.0000000000000000 ) ) ;
#172 = AXIS2_PLACEMENT_3D ( 'NONE', #200, #33, #250 ) ;
#173 = DIRECTION ( 'NONE',  ( -0.000000000000000000, -0.000000000000000000, -1.000000000000000000 ) ) ;
#174 = CC_DESIGN_DATE_AND_TIME_ASSIGNMENT ( #40, #63, ( #188 ) ) ;
#175 = DIRECTION ( 'NONE',  ( 1.000000000000000000, 0.000000000000000000, 0.000000000000000000 ) ) ;
#176 = MECHANICAL_CONTEXT ( 'NONE', #223, 'mechanical' ) ;
#177 = DIRECTION ( 'NONE',  ( 0.000000000000000000, 0.000000000000000000, 1.000000000000000000 ) ) ;
#178 = DIRECTION ( 'NONE',  ( -0.000000000000000000, -0.000000000000000000, -1.000000000000000000 ) ) ;
#179 = DIRECTION ( 'NONE',  ( 0.000000000000000000, 0.000000000000000000, 1.000000000000000000 ) ) ;
#180 = PERSON_AND_ORGANIZATION_ROLE ( 'design_supplier' ) ;
#181 = ORIENTED_EDGE ( 'NONE', *, *, #185, .T. ) ;
#182 = PRODUCT_DEFINITION_SHAPE ( 'NONE', 'NONE',  #138 ) ;
#183 = PERSON_AND_ORGANIZATION ( #242, #140 ) ;
#184 = AXIS2_PLACEMENT_3D ( 'NONE', #89, #244, #175 ) ;
#185 = EDGE_CURVE ( 'NONE', #205, #42, #20, .T. ) ;
#186 = ORIENTED_EDGE ( 'NONE', *, *, #94, .F. ) ;
#187 = AXIS2_PLACEMENT_3D ( 'NONE', #101, #136, #215 ) ;
#188 = SECURITY_CLASSIFICATION ( '', '', #16 ) ;
#189 = EDGE_LOOP ( 'NONE', ( #193, #133 ) ) ;
#190 = CC_DESIGN_DATE_AND_TIME_ASSIGNMENT ( #92, #247, ( #138 ) ) ;
#191 = EDGE_LOOP ( 'NONE', ( #181, #236 ) ) ;
#192 = DIRECTION ( 'NONE',  ( -0.000000000000000000, -0.000000000000000000, -1.000000000000000000 ) ) ;
#193 = ORIENTED_EDGE ( 'NONE', *, *, #243, .F. ) ;
#194 = AXIS2_PLACEMENT_3D ( 'NONE', #158, #179, #248 ) ;
#195 = FACE_OUTER_BOUND ( 'NONE', #106, .T. ) ;
#196 = DIRECTION ( 'NONE',  ( 0.000000000000000000, 0.000000000000000000, 1.000000000000000000 ) ) ;
#197 = ADVANCED_FACE ( 'NONE', ( #141 ), #50, .T. ) ;
#198 = PERSON_AND_ORGANIZATION_ROLE ( 'design_owner' ) ;
#199 = PERSON_AND_ORGANIZATION_ROLE ( 'creator' ) ;
#200 = CARTESIAN_POINT ( 'NONE',  ( 0.000000000000000000, 0.000000000000000000, 7.000000000000000000 ) ) ;
#201 = CC_DESIGN_APPROVAL ( #145, ( #6 ) ) ;
#202 = DATE_AND_TIME ( #221, #109 ) ;
#203 = PLANE ( 'NONE',  #71 ) ;
#204 = CALENDAR_DATE ( 2023, 13, 2 ) ;
#205 = VERTEX_POINT ( 'NONE', #74 ) ;
#206 = MANIFOLD_SOLID_BREP ( 'Pøidat vysunutím3', #96 ) ;
#207 = CALENDAR_DATE ( 2023, 13, 2 ) ;
#208 = AXIS2_PLACEMENT_3D ( 'NONE', #41, #241, #132 ) ;
#209 = ORIENTED_EDGE ( 'NONE', *, *, #24, .F. ) ;
#210 =( GEOMETRIC_REPRESENTATION_CONTEXT ( 3 ) GLOBAL_UNCERTAINTY_ASSIGNED_CONTEXT ( ( #148 ) ) GLOBAL_UNIT_ASSIGNED_CONTEXT ( ( #48, #249, #56 ) ) REPRESENTATION_CONTEXT ( 'NONE', 'WORKASPACE' ) );
#211 = CARTESIAN_POINT ( 'NONE',  ( 11.00000000000000000, 1.347111479062088405E-15, 7.000000000000000000 ) ) ;
#212 = APPROVAL_STATUS ( 'not_yet_approved' ) ;
#213 = ORIENTED_EDGE ( 'NONE', *, *, #28, .F. ) ;
#214 = LINE ( 'NONE', #151, #12 ) ;
#215 = DIRECTION ( 'NONE',  ( -1.000000000000000000, 0.000000000000000000, 0.000000000000000000 ) ) ;
#216 = CIRCLE ( 'NONE', #184, 11.00000000000000000 ) ;
#217 = PLANE ( 'NONE',  #76 ) ;
#218 = DIRECTION ( 'NONE',  ( 1.000000000000000000, 0.000000000000000000, -0.000000000000000000 ) ) ;
#219 = APPROVAL ( #212, 'NEURÈENÝ' ) ;
#220 = VECTOR ( 'NONE', #173, 1000.000000000000000 ) ;
#221 = CALENDAR_DATE ( 2023, 13, 2 ) ;
#222 = PERSON_AND_ORGANIZATION ( #242, #140 ) ;
#223 = APPLICATION_CONTEXT ( 'configuration controlled 3d designs of mechanical parts and assemblies' ) ;
#224 = APPLICATION_PROTOCOL_DEFINITION ( 'international standard', 'config_control_design', 1994, #223 ) ;
#225 = ADVANCED_FACE ( 'NONE', ( #143 ), #203, .T. ) ;
#226 = VECTOR ( 'NONE', #87, 1000.000000000000000 ) ;
#227 = DIRECTION ( 'NONE',  ( 0.000000000000000000, 0.000000000000000000, 1.000000000000000000 ) ) ;
#228 = CALENDAR_DATE ( 2023, 13, 2 ) ;
#229 = APPROVAL ( #51, 'NEURÈENÝ' ) ;
#230 = ORIENTED_EDGE ( 'NONE', *, *, #24, .T. ) ;
#231 = DIRECTION ( 'NONE',  ( 0.000000000000000000, 0.000000000000000000, 1.000000000000000000 ) ) ;
#232 = CIRCLE ( 'NONE', #208, 11.00000000000000000 ) ;
#233 = CC_DESIGN_PERSON_AND_ORGANIZATION_ASSIGNMENT ( #121, #198, ( #163 ) ) ;
#234 = ORIENTED_EDGE ( 'NONE', *, *, #116, .T. ) ;
#235 = CIRCLE ( 'NONE', #47, 11.00000000000000000 ) ;
#236 = ORIENTED_EDGE ( 'NONE', *, *, #94, .T. ) ;
#237 = DIRECTION ( 'NONE',  ( 1.000000000000000000, 0.000000000000000000, 0.000000000000000000 ) ) ;
#238 = ORIENTED_EDGE ( 'NONE', *, *, #28, .T. ) ;
#239 = VECTOR ( 'NONE', #192, 1000.000000000000000 ) ;
#240 = CIRCLE ( 'NONE', #90, 7.500000000000000000 ) ;
#241 = DIRECTION ( 'NONE',  ( 0.000000000000000000, 0.000000000000000000, 1.000000000000000000 ) ) ;
#242 = PERSON ( 'NEURÈENÝ', 'NEURÈENÝ', 'NEURÈENÝ', ('NEURÈENÝ'), ('NEURÈENÝ'), ('NEURÈENÝ') ) ;
#243 = EDGE_CURVE ( 'NONE', #114, #65, #252, .T. ) ;
#244 = DIRECTION ( 'NONE',  ( 0.000000000000000000, 0.000000000000000000, 1.000000000000000000 ) ) ;
#245 = CARTESIAN_POINT ( 'NONE',  ( 0.000000000000000000, 0.000000000000000000, 200.0000000000000000 ) ) ;
#246 = CARTESIAN_POINT ( 'NONE',  ( 0.000000000000000000, 0.000000000000000000, 0.000000000000000000 ) ) ;
#247 = DATE_TIME_ROLE ( 'creation_date' ) ;
#248 = DIRECTION ( 'NONE',  ( 1.000000000000000000, 0.000000000000000000, 0.000000000000000000 ) ) ;
#249 =( NAMED_UNIT ( * ) PLANE_ANGLE_UNIT ( ) SI_UNIT ( $, .RADIAN. ) );
#250 = DIRECTION ( 'NONE',  ( -1.000000000000000000, 0.000000000000000000, 0.000000000000000000 ) ) ;
#251 = PERSON_AND_ORGANIZATION ( #242, #140 ) ;
#252 = CIRCLE ( 'NONE', #53, 7.500000000000000000 ) ;
#253 = PERSON_AND_ORGANIZATION_ROLE ( 'classification_officer' ) ;
#254 = ADVANCED_FACE ( 'NONE', ( #130 ), #160, .T. ) ;
#255 = CARTESIAN_POINT ( 'NONE',  ( 0.000000000000000000, 0.000000000000000000, 200.0000000000000000 ) ) ;
ENDSEC;
END-ISO-10303-21;
