ISO-10303-21;
HEADER;
FILE_DESCRIPTION (( 'STEP AP203' ),
    '1' );
FILE_NAME ('e435.STEP',
    '2023-02-13T09:50:08',
    ( '' ),
    ( '' ),
    'SwSTEP 2.0',
    'SolidWorks 2019',
    '' );
FILE_SCHEMA (( 'CONFIG_CONTROL_DESIGN' ));
ENDSEC;

DATA;
#1 = CARTESIAN_POINT ( 'NONE',  ( -11.00000000000000000, 0.000000000000000000, 0.000000000000000000 ) ) ;
#2 = CALENDAR_DATE ( 2023, 13, 2 ) ;
#3 = ORIENTED_EDGE ( 'NONE', *, *, #141, .F. ) ;
#4 = CC_DESIGN_PERSON_AND_ORGANIZATION_ASSIGNMENT ( #57, #214, ( #26 ) ) ;
#5 =( NAMED_UNIT ( * ) PLANE_ANGLE_UNIT ( ) SI_UNIT ( $, .RADIAN. ) );
#6 = LINE ( 'NONE', #45, #173 ) ;
#7 = PERSON_AND_ORGANIZATION_ROLE ( 'design_supplier' ) ;
#8 = EDGE_CURVE ( 'NONE', #14, #183, #6, .T. ) ;
#9 = FACE_OUTER_BOUND ( 'NONE', #103, .T. ) ;
#10 = DATE_AND_TIME ( #69, #202 ) ;
#11 = APPROVAL_ROLE ( '' ) ;
#12 = CALENDAR_DATE ( 2023, 13, 2 ) ;
#13 = CARTESIAN_POINT ( 'NONE',  ( 0.000000000000000000, 0.000000000000000000, 0.000000000000000000 ) ) ;
#14 = VERTEX_POINT ( 'NONE', #102 ) ;
#15 = CYLINDRICAL_SURFACE ( 'NONE', #208, 11.00000000000000000 ) ;
#16 = DATE_TIME_ROLE ( 'creation_date' ) ;
#17 = DIRECTION ( 'NONE',  ( 0.000000000000000000, 0.000000000000000000, 1.000000000000000000 ) ) ;
#18 = CC_DESIGN_APPROVAL ( #132, ( #26 ) ) ;
#19 = ORIENTED_EDGE ( 'NONE', *, *, #151, .F. ) ;
#20 = CARTESIAN_POINT ( 'NONE',  ( 7.500000000000000000, 9.184850993605147944E-16, 7.000000000000000000 ) ) ;
#21 = CYLINDRICAL_SURFACE ( 'NONE', #245, 7.500000000000000000 ) ;
#22 = CARTESIAN_POINT ( 'NONE',  ( 7.500000000000000000, 9.184850993605147944E-16, 250.0000000000000000 ) ) ;
#23 = CIRCLE ( 'NONE', #53, 11.00000000000000000 ) ;
#24 = COORDINATED_UNIVERSAL_TIME_OFFSET ( 1, 0, .AHEAD. ) ;
#25 = DIRECTION ( 'NONE',  ( -0.000000000000000000, -0.000000000000000000, -1.000000000000000000 ) ) ;
#26 = PRODUCT_DEFINITION_FORMATION_WITH_SPECIFIED_SOURCE ( 'LIBOVOLNÝ', '', #181, .NOT_KNOWN. ) ;
#27 = ORIENTED_EDGE ( 'NONE', *, *, #56, .T. ) ;
#28 = CLOSED_SHELL ( 'NONE', ( #240, #120, #43, #124, #77, #174, #164 ) ) ;
#29 = EDGE_CURVE ( 'NONE', #127, #115, #222, .T. ) ;
#30 = ORIENTED_EDGE ( 'NONE', *, *, #29, .F. ) ;
#31 = APPROVAL_ROLE ( '' ) ;
#32 = PERSON_AND_ORGANIZATION_ROLE ( 'design_owner' ) ;
#33 = PERSON_AND_ORGANIZATION ( #133, #194 ) ;
#34 = ORIENTED_EDGE ( 'NONE', *, *, #234, .T. ) ;
#35 = CARTESIAN_POINT ( 'NONE',  ( 0.000000000000000000, 0.000000000000000000, 250.0000000000000000 ) ) ;
#36 = DIRECTION ( 'NONE',  ( 1.000000000000000000, 0.000000000000000000, -0.000000000000000000 ) ) ;
#37 = EDGE_LOOP ( 'NONE', ( #34, #100 ) ) ;
#38 = FACE_OUTER_BOUND ( 'NONE', #93, .T. ) ;
#39 = ORIENTED_EDGE ( 'NONE', *, *, #234, .F. ) ;
#40 = CIRCLE ( 'NONE', #186, 7.500000000000000000 ) ;
#41 = AXIS2_PLACEMENT_3D ( 'NONE', #68, #143, #223 ) ;
#42 = CARTESIAN_POINT ( 'NONE',  ( 0.000000000000000000, 0.000000000000000000, 250.0000000000000000 ) ) ;
#43 = ADVANCED_FACE ( 'NONE', ( #9 ), #167, .T. ) ;
#44 = DIRECTION ( 'NONE',  ( 1.000000000000000000, 0.000000000000000000, -0.000000000000000000 ) ) ;
#45 = CARTESIAN_POINT ( 'NONE',  ( 11.00000000000000000, 1.347111479062088405E-15, 7.000000000000000000 ) ) ;
#46 = CC_DESIGN_APPROVAL ( #59, ( #224 ) ) ;
#47 = COORDINATED_UNIVERSAL_TIME_OFFSET ( 1, 0, .AHEAD. ) ;
#48 = ORIENTED_EDGE ( 'NONE', *, *, #255, .F. ) ;
#49 = PERSON_AND_ORGANIZATION ( #133, #194 ) ;
#50 = DIRECTION ( 'NONE',  ( 1.000000000000000000, 0.000000000000000000, 0.000000000000000000 ) ) ;
#51 = LINE ( 'NONE', #76, #198 ) ;
#52 = ORIENTED_EDGE ( 'NONE', *, *, #99, .T. ) ;
#53 = AXIS2_PLACEMENT_3D ( 'NONE', #233, #215, #112 ) ;
#54 = VECTOR ( 'NONE', #219, 1000.000000000000000 ) ;
#55 = EDGE_LOOP ( 'NONE', ( #136, #225 ) ) ;
#56 = EDGE_CURVE ( 'NONE', #252, #14, #168, .T. ) ;
#57 = PERSON_AND_ORGANIZATION ( #133, #194 ) ;
#58 = FACE_BOUND ( 'NONE', #228, .T. ) ;
#59 = APPROVAL ( #221, 'NEURÈENÝ' ) ;
#60 = CARTESIAN_POINT ( 'NONE',  ( -7.500000000000000000, 0.000000000000000000, 250.0000000000000000 ) ) ;
#61 = AXIS2_PLACEMENT_3D ( 'NONE', #105, #85, #50 ) ;
#62 = LINE ( 'NONE', #114, #134 ) ;
#63 = CC_DESIGN_PERSON_AND_ORGANIZATION_ASSIGNMENT ( #250, #32, ( #181 ) ) ;
#64 =( GEOMETRIC_REPRESENTATION_CONTEXT ( 3 ) GLOBAL_UNCERTAINTY_ASSIGNED_CONTEXT ( ( #154 ) ) GLOBAL_UNIT_ASSIGNED_CONTEXT ( ( #152, #5, #91 ) ) REPRESENTATION_CONTEXT ( 'NONE', 'WORKASPACE' ) );
#65 = DIRECTION ( 'NONE',  ( -1.000000000000000000, 0.000000000000000000, 0.000000000000000000 ) ) ;
#66 = ORIENTED_EDGE ( 'NONE', *, *, #151, .T. ) ;
#67 = AXIS2_PLACEMENT_3D ( 'NONE', #111, #79, #191 ) ;
#68 = CARTESIAN_POINT ( 'NONE',  ( 0.000000000000000000, 0.000000000000000000, 7.000000000000000000 ) ) ;
#69 = CALENDAR_DATE ( 2023, 13, 2 ) ;
#70 = PERSON_AND_ORGANIZATION_ROLE ( 'creator' ) ;
#71 = CC_DESIGN_DATE_AND_TIME_ASSIGNMENT ( #146, #16, ( #211 ) ) ;
#72 = APPROVAL_STATUS ( 'not_yet_approved' ) ;
#73 = PERSON_AND_ORGANIZATION ( #133, #194 ) ;
#74 = DIRECTION ( 'NONE',  ( -1.000000000000000000, 0.000000000000000000, 0.000000000000000000 ) ) ;
#75 = APPROVAL_DATE_TIME ( #253, #132 ) ;
#76 = CARTESIAN_POINT ( 'NONE',  ( -11.00000000000000000, 0.000000000000000000, 7.000000000000000000 ) ) ;
#77 = ADVANCED_FACE ( 'NONE', ( #128 ), #207, .F. ) ;
#78 = SHAPE_DEFINITION_REPRESENTATION ( #101, #147 ) ;
#79 = DIRECTION ( 'NONE',  ( 0.000000000000000000, 0.000000000000000000, 1.000000000000000000 ) ) ;
#80 = EDGE_LOOP ( 'NONE', ( #3, #203, #138, #19 ) ) ;
#81 = LOCAL_TIME ( 10, 50, 8.000000000000000000, #47 ) ;
#82 = CC_DESIGN_PERSON_AND_ORGANIZATION_ASSIGNMENT ( #110, #7, ( #26 ) ) ;
#83 = CC_DESIGN_APPROVAL ( #145, ( #211 ) ) ;
#84 = SECURITY_CLASSIFICATION_LEVEL ( 'unclassified' ) ;
#85 = DIRECTION ( 'NONE',  ( 0.000000000000000000, 0.000000000000000000, 1.000000000000000000 ) ) ;
#86 = AXIS2_PLACEMENT_3D ( 'NONE', #182, #135, #44 ) ;
#87 = DIRECTION ( 'NONE',  ( 1.000000000000000000, 0.000000000000000000, -0.000000000000000000 ) ) ;
#88 = CALENDAR_DATE ( 2023, 13, 2 ) ;
#89 = CARTESIAN_POINT ( 'NONE',  ( 0.000000000000000000, 0.000000000000000000, 250.0000000000000000 ) ) ;
#90 = FACE_OUTER_BOUND ( 'NONE', #80, .T. ) ;
#91 =( NAMED_UNIT ( * ) SI_UNIT ( $, .STERADIAN. ) SOLID_ANGLE_UNIT ( ) );
#92 = DATE_AND_TIME ( #2, #172 ) ;
#93 = EDGE_LOOP ( 'NONE', ( #123, #97, #52, #48 ) ) ;
#94 = DIRECTION ( 'NONE',  ( -0.000000000000000000, -0.000000000000000000, -1.000000000000000000 ) ) ;
#95 = CIRCLE ( 'NONE', #244, 11.00000000000000000 ) ;
#96 = AXIS2_PLACEMENT_3D ( 'NONE', #212, #170, #230 ) ;
#97 = ORIENTED_EDGE ( 'NONE', *, *, #210, .T. ) ;
#98 = DIRECTION ( 'NONE',  ( -0.000000000000000000, -0.000000000000000000, -1.000000000000000000 ) ) ;
#99 = EDGE_CURVE ( 'NONE', #115, #127, #116, .T. ) ;
#100 = ORIENTED_EDGE ( 'NONE', *, *, #104, .T. ) ;
#101 = PRODUCT_DEFINITION_SHAPE ( 'NONE', 'NONE',  #211 ) ;
#102 = CARTESIAN_POINT ( 'NONE',  ( 11.00000000000000000, 1.347111479062088405E-15, 7.000000000000000000 ) ) ;
#103 = EDGE_LOOP ( 'NONE', ( #118, #160, #66, #218 ) ) ;
#104 = EDGE_CURVE ( 'NONE', #220, #149, #40, .T. ) ;
#105 = CARTESIAN_POINT ( 'NONE',  ( 0.000000000000000000, 0.000000000000000000, 7.000000000000000000 ) ) ;
#106 = DATE_AND_TIME ( #246, #126 ) ;
#107 = MECHANICAL_CONTEXT ( 'NONE', #229, 'mechanical' ) ;
#108 = APPROVAL_DATE_TIME ( #106, #145 ) ;
#109 = CARTESIAN_POINT ( 'NONE',  ( 0.000000000000000000, 0.000000000000000000, 7.000000000000000000 ) ) ;
#110 = PERSON_AND_ORGANIZATION ( #133, #194 ) ;
#111 = CARTESIAN_POINT ( 'NONE',  ( 0.000000000000000000, 0.000000000000000000, 250.0000000000000000 ) ) ;
#112 = DIRECTION ( 'NONE',  ( 1.000000000000000000, 0.000000000000000000, 0.000000000000000000 ) ) ;
#113 = APPROVAL_DATE_TIME ( #92, #59 ) ;
#114 = CARTESIAN_POINT ( 'NONE',  ( 7.500000000000000000, 9.184850993605147944E-16, 250.0000000000000000 ) ) ;
#115 = VERTEX_POINT ( 'NONE', #20 ) ;
#116 = CIRCLE ( 'NONE', #41, 7.500000000000000000 ) ;
#117 = APPROVAL_PERSON_ORGANIZATION ( #140, #59, #159 ) ;
#118 = ORIENTED_EDGE ( 'NONE', *, *, #8, .F. ) ;
#119 = PRODUCT_RELATED_PRODUCT_CATEGORY ( 'detail', '', ( #181 ) ) ;
#120 = ADVANCED_FACE ( 'NONE', ( #90 ), #15, .T. ) ;
#121 = DIRECTION ( 'NONE',  ( 0.000000000000000000, 0.000000000000000000, 1.000000000000000000 ) ) ;
#122 = CARTESIAN_POINT ( 'NONE',  ( 0.000000000000000000, 0.000000000000000000, 7.000000000000000000 ) ) ;
#123 = ORIENTED_EDGE ( 'NONE', *, *, #104, .F. ) ;
#124 = ADVANCED_FACE ( 'NONE', ( #58, #251 ), #213, .T. ) ;
#125 = AXIS2_PLACEMENT_3D ( 'NONE', #248, #148, #206 ) ;
#126 = LOCAL_TIME ( 10, 50, 8.000000000000000000, #205 ) ;
#127 = VERTEX_POINT ( 'NONE', #131 ) ;
#128 = FACE_OUTER_BOUND ( 'NONE', #55, .T. ) ;
#129 = CIRCLE ( 'NONE', #239, 11.00000000000000000 ) ;
#130 = APPROVAL_PERSON_ORGANIZATION ( #33, #145, #11 ) ;
#131 = CARTESIAN_POINT ( 'NONE',  ( -7.500000000000000000, 0.000000000000000000, 7.000000000000000000 ) ) ;
#132 = APPROVAL ( #247, 'NEURÈENÝ' ) ;
#133 = PERSON ( 'NEURÈENÝ', 'NEURÈENÝ', 'NEURÈENÝ', ('NEURÈENÝ'), ('NEURÈENÝ'), ('NEURÈENÝ') ) ;
#134 = VECTOR ( 'NONE', #98, 1000.000000000000000 ) ;
#135 = DIRECTION ( 'NONE',  ( 0.000000000000000000, 0.000000000000000000, 1.000000000000000000 ) ) ;
#136 = ORIENTED_EDGE ( 'NONE', *, *, #142, .F. ) ;
#137 = CARTESIAN_POINT ( 'NONE',  ( -11.00000000000000000, 0.000000000000000000, 7.000000000000000000 ) ) ;
#138 = ORIENTED_EDGE ( 'NONE', *, *, #156, .T. ) ;
#139 = EDGE_LOOP ( 'NONE', ( #177, #39, #157, #162 ) ) ;
#140 = PERSON_AND_ORGANIZATION ( #133, #194 ) ;
#141 = EDGE_CURVE ( 'NONE', #14, #252, #95, .T. ) ;
#142 = EDGE_CURVE ( 'NONE', #179, #183, #129, .T. ) ;
#143 = DIRECTION ( 'NONE',  ( 0.000000000000000000, 0.000000000000000000, 1.000000000000000000 ) ) ;
#144 = MANIFOLD_SOLID_BREP ( 'Pøidat vysunutím3', #28 ) ;
#145 = APPROVAL ( #72, 'NEURÈENÝ' ) ;
#146 = DATE_AND_TIME ( #12, #209 ) ;
#147 = ADVANCED_BREP_SHAPE_REPRESENTATION ( 'e435', ( #144, #96 ), #64 ) ;
#148 = DIRECTION ( 'NONE',  ( -0.000000000000000000, -0.000000000000000000, -1.000000000000000000 ) ) ;
#149 = VERTEX_POINT ( 'NONE', #60 ) ;
#150 = CARTESIAN_POINT ( 'NONE',  ( 0.000000000000000000, 0.000000000000000000, 7.000000000000000000 ) ) ;
#151 = EDGE_CURVE ( 'NONE', #252, #179, #51, .T. ) ;
#152 =( LENGTH_UNIT ( ) NAMED_UNIT ( * ) SI_UNIT ( .MILLI., .METRE. ) );
#153 = DIRECTION ( 'NONE',  ( -0.000000000000000000, -0.000000000000000000, -1.000000000000000000 ) ) ;
#154 = UNCERTAINTY_MEASURE_WITH_UNIT (LENGTH_MEASURE( 1.000000000000000082E-05 ), #152, 'distance_accuracy_value', 'NONE');
#155 = CARTESIAN_POINT ( 'NONE',  ( -7.500000000000000000, 0.000000000000000000, 250.0000000000000000 ) ) ;
#156 = EDGE_CURVE ( 'NONE', #183, #179, #23, .T. ) ;
#157 = ORIENTED_EDGE ( 'NONE', *, *, #255, .T. ) ;
#158 = CIRCLE ( 'NONE', #67, 7.500000000000000000 ) ;
#159 = APPROVAL_ROLE ( '' ) ;
#160 = ORIENTED_EDGE ( 'NONE', *, *, #56, .F. ) ;
#161 = PERSON_AND_ORGANIZATION ( #133, #194 ) ;
#162 = ORIENTED_EDGE ( 'NONE', *, *, #29, .T. ) ;
#163 = DIRECTION ( 'NONE',  ( -0.000000000000000000, -0.000000000000000000, -1.000000000000000000 ) ) ;
#164 = ADVANCED_FACE ( 'NONE', ( #249 ), #243, .T. ) ;
#165 = PERSON_AND_ORGANIZATION_ROLE ( 'classification_officer' ) ;
#166 = CC_DESIGN_PERSON_AND_ORGANIZATION_ASSIGNMENT ( #161, #165, ( #224 ) ) ;
#167 = CYLINDRICAL_SURFACE ( 'NONE', #125, 11.00000000000000000 ) ;
#168 = CIRCLE ( 'NONE', #61, 11.00000000000000000 ) ;
#169 = CARTESIAN_POINT ( 'NONE',  ( 0.000000000000000000, 0.000000000000000000, 0.000000000000000000 ) ) ;
#170 = DIRECTION ( 'NONE',  ( 0.000000000000000000, 0.000000000000000000, 1.000000000000000000 ) ) ;
#171 = AXIS2_PLACEMENT_3D ( 'NONE', #35, #94, #237 ) ;
#172 = LOCAL_TIME ( 10, 50, 8.000000000000000000, #24 ) ;
#173 = VECTOR ( 'NONE', #163, 1000.000000000000000 ) ;
#174 = ADVANCED_FACE ( 'NONE', ( #201 ), #196, .T. ) ;
#175 = DIRECTION ( 'NONE',  ( 1.000000000000000000, 0.000000000000000000, 0.000000000000000000 ) ) ;
#176 = CARTESIAN_POINT ( 'NONE',  ( 0.000000000000000000, 0.000000000000000000, 7.000000000000000000 ) ) ;
#177 = ORIENTED_EDGE ( 'NONE', *, *, #210, .F. ) ;
#178 = AXIS2_PLACEMENT_3D ( 'NONE', #122, #184, #200 ) ;
#179 = VERTEX_POINT ( 'NONE', #1 ) ;
#180 = CC_DESIGN_PERSON_AND_ORGANIZATION_ASSIGNMENT ( #49, #70, ( #211 ) ) ;
#181 = PRODUCT ( 'e435', 'e435', '', ( #107 ) ) ;
#182 = CARTESIAN_POINT ( 'NONE',  ( 0.000000000000000000, 0.000000000000000000, 250.0000000000000000 ) ) ;
#183 = VERTEX_POINT ( 'NONE', #193 ) ;
#184 = DIRECTION ( 'NONE',  ( 0.000000000000000000, 0.000000000000000000, 1.000000000000000000 ) ) ;
#185 = COORDINATED_UNIVERSAL_TIME_OFFSET ( 1, 0, .AHEAD. ) ;
#186 = AXIS2_PLACEMENT_3D ( 'NONE', #42, #121, #188 ) ;
#187 = APPLICATION_PROTOCOL_DEFINITION ( 'international standard', 'config_control_design', 1994, #229 ) ;
#188 = DIRECTION ( 'NONE',  ( 1.000000000000000000, 0.000000000000000000, 0.000000000000000000 ) ) ;
#189 = COORDINATED_UNIVERSAL_TIME_OFFSET ( 1, 0, .AHEAD. ) ;
#190 = DIRECTION ( 'NONE',  ( 0.000000000000000000, 0.000000000000000000, 1.000000000000000000 ) ) ;
#191 = DIRECTION ( 'NONE',  ( 1.000000000000000000, 0.000000000000000000, 0.000000000000000000 ) ) ;
#192 = DIRECTION ( 'NONE',  ( -0.000000000000000000, -0.000000000000000000, -1.000000000000000000 ) ) ;
#193 = CARTESIAN_POINT ( 'NONE',  ( 11.00000000000000000, 1.347111479062088405E-15, 0.000000000000000000 ) ) ;
#194 = ORGANIZATION ( 'NEURÈENÝ', 'NEURÈENÝ', '' ) ;
#195 = EDGE_LOOP ( 'NONE', ( #27, #226 ) ) ;
#196 = CYLINDRICAL_SURFACE ( 'NONE', #171, 7.500000000000000000 ) ;
#197 = ORIENTED_EDGE ( 'NONE', *, *, #99, .F. ) ;
#198 = VECTOR ( 'NONE', #153, 1000.000000000000000 ) ;
#199 = AXIS2_PLACEMENT_3D ( 'NONE', #13, #242, #87 ) ;
#200 = DIRECTION ( 'NONE',  ( 1.000000000000000000, 0.000000000000000000, 0.000000000000000000 ) ) ;
#201 = FACE_OUTER_BOUND ( 'NONE', #139, .T. ) ;
#202 = LOCAL_TIME ( 10, 50, 8.000000000000000000, #185 ) ;
#203 = ORIENTED_EDGE ( 'NONE', *, *, #8, .T. ) ;
#204 = APPLICATION_CONTEXT ( 'configuration controlled 3d designs of mechanical parts and assemblies' ) ;
#205 = COORDINATED_UNIVERSAL_TIME_OFFSET ( 1, 0, .AHEAD. ) ;
#206 = DIRECTION ( 'NONE',  ( -1.000000000000000000, 0.000000000000000000, 0.000000000000000000 ) ) ;
#207 = PLANE ( 'NONE',  #199 ) ;
#208 = AXIS2_PLACEMENT_3D ( 'NONE', #176, #192, #74 ) ;
#209 = LOCAL_TIME ( 10, 50, 8.000000000000000000, #189 ) ;
#210 = EDGE_CURVE ( 'NONE', #220, #115, #62, .T. ) ;
#211 = PRODUCT_DEFINITION ( 'NEZNÁMÝ', '', #26, #216 ) ;
#212 = CARTESIAN_POINT ( 'NONE',  ( 0.000000000000000000, 0.000000000000000000, 0.000000000000000000 ) ) ;
#213 = PLANE ( 'NONE',  #235 ) ;
#214 = PERSON_AND_ORGANIZATION_ROLE ( 'creator' ) ;
#215 = DIRECTION ( 'NONE',  ( 0.000000000000000000, 0.000000000000000000, 1.000000000000000000 ) ) ;
#216 = DESIGN_CONTEXT ( 'detailed design', #204, 'design' ) ;
#217 = CC_DESIGN_DATE_AND_TIME_ASSIGNMENT ( #10, #241, ( #224 ) ) ;
#218 = ORIENTED_EDGE ( 'NONE', *, *, #142, .T. ) ;
#219 = DIRECTION ( 'NONE',  ( -0.000000000000000000, -0.000000000000000000, -1.000000000000000000 ) ) ;
#220 = VERTEX_POINT ( 'NONE', #22 ) ;
#221 = APPROVAL_STATUS ( 'not_yet_approved' ) ;
#222 = CIRCLE ( 'NONE', #178, 7.500000000000000000 ) ;
#223 = DIRECTION ( 'NONE',  ( 1.000000000000000000, 0.000000000000000000, 0.000000000000000000 ) ) ;
#224 = SECURITY_CLASSIFICATION ( '', '', #84 ) ;
#225 = ORIENTED_EDGE ( 'NONE', *, *, #156, .F. ) ;
#226 = ORIENTED_EDGE ( 'NONE', *, *, #141, .T. ) ;
#227 = APPLICATION_PROTOCOL_DEFINITION ( 'international standard', 'config_control_design', 1994, #204 ) ;
#228 = EDGE_LOOP ( 'NONE', ( #30, #197 ) ) ;
#229 = APPLICATION_CONTEXT ( 'configuration controlled 3d designs of mechanical parts and assemblies' ) ;
#230 = DIRECTION ( 'NONE',  ( 1.000000000000000000, 0.000000000000000000, 0.000000000000000000 ) ) ;
#231 = DIRECTION ( 'NONE',  ( 1.000000000000000000, 0.000000000000000000, 0.000000000000000000 ) ) ;
#232 = APPROVAL_PERSON_ORGANIZATION ( #73, #132, #31 ) ;
#233 = CARTESIAN_POINT ( 'NONE',  ( 0.000000000000000000, 0.000000000000000000, 0.000000000000000000 ) ) ;
#234 = EDGE_CURVE ( 'NONE', #149, #220, #158, .T. ) ;
#235 = AXIS2_PLACEMENT_3D ( 'NONE', #109, #190, #36 ) ;
#236 = LINE ( 'NONE', #155, #54 ) ;
#237 = DIRECTION ( 'NONE',  ( -1.000000000000000000, 0.000000000000000000, 0.000000000000000000 ) ) ;
#238 = CC_DESIGN_SECURITY_CLASSIFICATION ( #224, ( #26 ) ) ;
#239 = AXIS2_PLACEMENT_3D ( 'NONE', #169, #254, #175 ) ;
#240 = ADVANCED_FACE ( 'NONE', ( #38 ), #21, .T. ) ;
#241 = DATE_TIME_ROLE ( 'classification_date' ) ;
#242 = DIRECTION ( 'NONE',  ( 0.000000000000000000, 0.000000000000000000, 1.000000000000000000 ) ) ;
#243 = PLANE ( 'NONE',  #86 ) ;
#244 = AXIS2_PLACEMENT_3D ( 'NONE', #150, #17, #231 ) ;
#245 = AXIS2_PLACEMENT_3D ( 'NONE', #89, #25, #65 ) ;
#246 = CALENDAR_DATE ( 2023, 13, 2 ) ;
#247 = APPROVAL_STATUS ( 'not_yet_approved' ) ;
#248 = CARTESIAN_POINT ( 'NONE',  ( 0.000000000000000000, 0.000000000000000000, 7.000000000000000000 ) ) ;
#249 = FACE_OUTER_BOUND ( 'NONE', #37, .T. ) ;
#250 = PERSON_AND_ORGANIZATION ( #133, #194 ) ;
#251 = FACE_OUTER_BOUND ( 'NONE', #195, .T. ) ;
#252 = VERTEX_POINT ( 'NONE', #137 ) ;
#253 = DATE_AND_TIME ( #88, #81 ) ;
#254 = DIRECTION ( 'NONE',  ( 0.000000000000000000, 0.000000000000000000, 1.000000000000000000 ) ) ;
#255 = EDGE_CURVE ( 'NONE', #149, #127, #236, .T. ) ;
ENDSEC;
END-ISO-10303-21;
