ISO-10303-21;
HEADER;
FILE_DESCRIPTION (( 'STEP AP203' ),
    '1' );
FILE_NAME ('6f0d.STEP',
    '2023-02-13T10:43:18',
    ( '' ),
    ( '' ),
    'SwSTEP 2.0',
    'SolidWorks 2019',
    '' );
FILE_SCHEMA (( 'CONFIG_CONTROL_DESIGN' ));
ENDSEC;

DATA;
#1 = CARTESIAN_POINT ( 'NONE',  ( 0.000000000000000000, 0.000000000000000000, 7.000000000000000000 ) ) ;
#2 = DATE_AND_TIME ( #180, #42 ) ;
#3 = PRODUCT ( '6f0d', '6f0d', '', ( #184 ) ) ;
#4 =( NAMED_UNIT ( * ) SI_UNIT ( $, .STERADIAN. ) SOLID_ANGLE_UNIT ( ) );
#5 = EDGE_CURVE ( 'NONE', #72, #14, #160, .T. ) ;
#6 = DIRECTION ( 'NONE',  ( -0.000000000000000000, -0.000000000000000000, -1.000000000000000000 ) ) ;
#7 = CLOSED_SHELL ( 'NONE', ( #237, #225, #63, #209, #81, #123, #105 ) ) ;
#8 = APPROVAL ( #199, 'NEURÈENÝ' ) ;
#9 = APPROVAL_PERSON_ORGANIZATION ( #122, #8, #107 ) ;
#10 = CC_DESIGN_APPROVAL ( #161, ( #167 ) ) ;
#11 = AXIS2_PLACEMENT_3D ( 'NONE', #83, #116, #216 ) ;
#12 = PERSON_AND_ORGANIZATION ( #93, #145 ) ;
#13 = MANIFOLD_SOLID_BREP ( 'Pøidat vysunutím3', #7 ) ;
#14 = VERTEX_POINT ( 'NONE', #39 ) ;
#15 = PERSON_AND_ORGANIZATION ( #93, #145 ) ;
#16 = CARTESIAN_POINT ( 'NONE',  ( 0.000000000000000000, 0.000000000000000000, 0.000000000000000000 ) ) ;
#17 = CARTESIAN_POINT ( 'NONE',  ( 0.000000000000000000, 0.000000000000000000, 7.000000000000000000 ) ) ;
#18 = CARTESIAN_POINT ( 'NONE',  ( 0.000000000000000000, 0.000000000000000000, 7.000000000000000000 ) ) ;
#19 = ORIENTED_EDGE ( 'NONE', *, *, #5, .F. ) ;
#20 = ORIENTED_EDGE ( 'NONE', *, *, #54, .T. ) ;
#21 = VECTOR ( 'NONE', #88, 1000.000000000000000 ) ;
#22 = UNCERTAINTY_MEASURE_WITH_UNIT (LENGTH_MEASURE( 1.000000000000000082E-05 ), #144, 'distance_accuracy_value', 'NONE');
#23 = LINE ( 'NONE', #125, #21 ) ;
#24 = DIRECTION ( 'NONE',  ( 1.000000000000000000, 0.000000000000000000, 0.000000000000000000 ) ) ;
#25 = EDGE_CURVE ( 'NONE', #155, #151, #97, .T. ) ;
#26 = COORDINATED_UNIVERSAL_TIME_OFFSET ( 1, 0, .AHEAD. ) ;
#27 = CARTESIAN_POINT ( 'NONE',  ( 0.000000000000000000, 0.000000000000000000, 200.0000000000000000 ) ) ;
#28 = CARTESIAN_POINT ( 'NONE',  ( 0.000000000000000000, 0.000000000000000000, 200.0000000000000000 ) ) ;
#29 = COORDINATED_UNIVERSAL_TIME_OFFSET ( 1, 0, .AHEAD. ) ;
#30 = APPROVAL_PERSON_ORGANIZATION ( #208, #161, #164 ) ;
#31 = ORIENTED_EDGE ( 'NONE', *, *, #188, .T. ) ;
#32 = ORIENTED_EDGE ( 'NONE', *, *, #101, .T. ) ;
#33 = VECTOR ( 'NONE', #82, 1000.000000000000000 ) ;
#34 = COORDINATED_UNIVERSAL_TIME_OFFSET ( 1, 0, .AHEAD. ) ;
#35 = ORIENTED_EDGE ( 'NONE', *, *, #101, .F. ) ;
#36 = CC_DESIGN_DATE_AND_TIME_ASSIGNMENT ( #90, #187, ( #167 ) ) ;
#37 = CARTESIAN_POINT ( 'NONE',  ( 7.000000000000000000, 8.572527594031473190E-16, 200.0000000000000000 ) ) ;
#38 = DIRECTION ( 'NONE',  ( 1.000000000000000000, 0.000000000000000000, 0.000000000000000000 ) ) ;
#39 = CARTESIAN_POINT ( 'NONE',  ( 7.000000000000000000, 8.572527594031473190E-16, 7.000000000000000000 ) ) ;
#40 = DIRECTION ( 'NONE',  ( -0.000000000000000000, -0.000000000000000000, -1.000000000000000000 ) ) ;
#41 = CYLINDRICAL_SURFACE ( 'NONE', #143, 7.000000000000000000 ) ;
#42 = LOCAL_TIME ( 11, 43, 18.00000000000000000, #26 ) ;
#43 = CARTESIAN_POINT ( 'NONE',  ( 0.000000000000000000, 0.000000000000000000, 0.000000000000000000 ) ) ;
#44 = EDGE_CURVE ( 'NONE', #134, #211, #138, .T. ) ;
#45 = DIRECTION ( 'NONE',  ( 0.000000000000000000, 0.000000000000000000, 1.000000000000000000 ) ) ;
#46 = PERSON_AND_ORGANIZATION ( #93, #145 ) ;
#47 =( GEOMETRIC_REPRESENTATION_CONTEXT ( 3 ) GLOBAL_UNCERTAINTY_ASSIGNED_CONTEXT ( ( #22 ) ) GLOBAL_UNIT_ASSIGNED_CONTEXT ( ( #144, #201, #4 ) ) REPRESENTATION_CONTEXT ( 'NONE', 'WORKASPACE' ) );
#48 = CC_DESIGN_PERSON_AND_ORGANIZATION_ASSIGNMENT ( #15, #131, ( #167 ) ) ;
#49 = CALENDAR_DATE ( 2023, 13, 2 ) ;
#50 = ORIENTED_EDGE ( 'NONE', *, *, #53, .T. ) ;
#51 = PERSON_AND_ORGANIZATION ( #93, #145 ) ;
#52 = VERTEX_POINT ( 'NONE', #37 ) ;
#53 = EDGE_CURVE ( 'NONE', #151, #211, #205, .T. ) ;
#54 = EDGE_CURVE ( 'NONE', #73, #72, #157, .T. ) ;
#55 = CALENDAR_DATE ( 2023, 13, 2 ) ;
#56 = COORDINATED_UNIVERSAL_TIME_OFFSET ( 1, 0, .AHEAD. ) ;
#57 = ORIENTED_EDGE ( 'NONE', *, *, #243, .F. ) ;
#58 = PRODUCT_DEFINITION ( 'NEZNÁMÝ', '', #98, #117 ) ;
#59 = ORIENTED_EDGE ( 'NONE', *, *, #126, .F. ) ;
#60 = EDGE_LOOP ( 'NONE', ( #228, #207, #153, #249 ) ) ;
#61 = DIRECTION ( 'NONE',  ( 0.000000000000000000, 0.000000000000000000, 1.000000000000000000 ) ) ;
#62 = CARTESIAN_POINT ( 'NONE',  ( 0.000000000000000000, 0.000000000000000000, 0.000000000000000000 ) ) ;
#63 = ADVANCED_FACE ( 'NONE', ( #113 ), #215, .T. ) ;
#64 = EDGE_CURVE ( 'NONE', #14, #72, #179, .T. ) ;
#65 = DIRECTION ( 'NONE',  ( 1.000000000000000000, 0.000000000000000000, 0.000000000000000000 ) ) ;
#66 = DIRECTION ( 'NONE',  ( -0.000000000000000000, -0.000000000000000000, -1.000000000000000000 ) ) ;
#67 = DIRECTION ( 'NONE',  ( -0.000000000000000000, -0.000000000000000000, -1.000000000000000000 ) ) ;
#68 = AXIS2_PLACEMENT_3D ( 'NONE', #236, #61, #136 ) ;
#69 = DIRECTION ( 'NONE',  ( -1.000000000000000000, 0.000000000000000000, 0.000000000000000000 ) ) ;
#70 = CARTESIAN_POINT ( 'NONE',  ( 0.000000000000000000, 0.000000000000000000, 7.000000000000000000 ) ) ;
#71 = DATE_AND_TIME ( #147, #77 ) ;
#72 = VERTEX_POINT ( 'NONE', #135 ) ;
#73 = VERTEX_POINT ( 'NONE', #175 ) ;
#74 = APPROVAL_DATE_TIME ( #168, #161 ) ;
#75 = EDGE_LOOP ( 'NONE', ( #189, #100 ) ) ;
#76 = COORDINATED_UNIVERSAL_TIME_OFFSET ( 1, 0, .AHEAD. ) ;
#77 = LOCAL_TIME ( 11, 43, 18.00000000000000000, #56 ) ;
#78 = CARTESIAN_POINT ( 'NONE',  ( -11.00000000000000000, 0.000000000000000000, 7.000000000000000000 ) ) ;
#79 = CARTESIAN_POINT ( 'NONE',  ( 0.000000000000000000, 0.000000000000000000, 200.0000000000000000 ) ) ;
#80 = EDGE_LOOP ( 'NONE', ( #233, #59 ) ) ;
#81 = ADVANCED_FACE ( 'NONE', ( #119 ), #156, .F. ) ;
#82 = DIRECTION ( 'NONE',  ( -0.000000000000000000, -0.000000000000000000, -1.000000000000000000 ) ) ;
#83 = CARTESIAN_POINT ( 'NONE',  ( 0.000000000000000000, 0.000000000000000000, 200.0000000000000000 ) ) ;
#84 = VECTOR ( 'NONE', #103, 1000.000000000000000 ) ;
#85 = CC_DESIGN_PERSON_AND_ORGANIZATION_ASSIGNMENT ( #46, #221, ( #3 ) ) ;
#86 = DIRECTION ( 'NONE',  ( 0.000000000000000000, 0.000000000000000000, 1.000000000000000000 ) ) ;
#87 = DIRECTION ( 'NONE',  ( 1.000000000000000000, 0.000000000000000000, 0.000000000000000000 ) ) ;
#88 = DIRECTION ( 'NONE',  ( -0.000000000000000000, -0.000000000000000000, -1.000000000000000000 ) ) ;
#89 = CYLINDRICAL_SURFACE ( 'NONE', #137, 7.000000000000000000 ) ;
#90 = DATE_AND_TIME ( #49, #197 ) ;
#91 = AXIS2_PLACEMENT_3D ( 'NONE', #16, #238, #240 ) ;
#92 = PERSON_AND_ORGANIZATION_ROLE ( 'design_supplier' ) ;
#93 = PERSON ( 'NEURÈENÝ', 'NEURÈENÝ', 'NEURÈENÝ', ('NEURÈENÝ'), ('NEURÈENÝ'), ('NEURÈENÝ') ) ;
#94 = PERSON_AND_ORGANIZATION ( #93, #145 ) ;
#95 = APPROVAL_DATE_TIME ( #129, #139 ) ;
#96 = CC_DESIGN_PERSON_AND_ORGANIZATION_ASSIGNMENT ( #111, #185, ( #98 ) ) ;
#97 = LINE ( 'NONE', #78, #200 ) ;
#98 = PRODUCT_DEFINITION_FORMATION_WITH_SPECIFIED_SOURCE ( 'LIBOVOLNÝ', '', #3, .NOT_KNOWN. ) ;
#99 = ORIENTED_EDGE ( 'NONE', *, *, #243, .T. ) ;
#100 = ORIENTED_EDGE ( 'NONE', *, *, #149, .T. ) ;
#101 = EDGE_CURVE ( 'NONE', #73, #52, #121, .T. ) ;
#102 = AXIS2_PLACEMENT_3D ( 'NONE', #1, #195, #65 ) ;
#103 = DIRECTION ( 'NONE',  ( -0.000000000000000000, -0.000000000000000000, -1.000000000000000000 ) ) ;
#104 = EDGE_LOOP ( 'NONE', ( #57, #31, #239, #255 ) ) ;
#105 = ADVANCED_FACE ( 'NONE', ( #141 ), #253, .T. ) ;
#106 = FACE_OUTER_BOUND ( 'NONE', #104, .T. ) ;
#107 = APPROVAL_ROLE ( '' ) ;
#108 = CYLINDRICAL_SURFACE ( 'NONE', #115, 11.00000000000000000 ) ;
#109 = LOCAL_TIME ( 11, 43, 18.00000000000000000, #34 ) ;
#110 = AXIS2_PLACEMENT_3D ( 'NONE', #62, #140, #214 ) ;
#111 = PERSON_AND_ORGANIZATION ( #93, #145 ) ;
#112 = ORIENTED_EDGE ( 'NONE', *, *, #188, .F. ) ;
#113 = FACE_OUTER_BOUND ( 'NONE', #254, .T. ) ;
#114 = APPLICATION_CONTEXT ( 'configuration controlled 3d designs of mechanical parts and assemblies' ) ;
#115 = AXIS2_PLACEMENT_3D ( 'NONE', #204, #67, #69 ) ;
#116 = DIRECTION ( 'NONE',  ( 0.000000000000000000, 0.000000000000000000, 1.000000000000000000 ) ) ;
#117 = DESIGN_CONTEXT ( 'detailed design', #230, 'design' ) ;
#118 = DIRECTION ( 'NONE',  ( 0.000000000000000000, 0.000000000000000000, 1.000000000000000000 ) ) ;
#119 = FACE_OUTER_BOUND ( 'NONE', #80, .T. ) ;
#120 = CARTESIAN_POINT ( 'NONE',  ( 0.000000000000000000, 0.000000000000000000, 200.0000000000000000 ) ) ;
#121 = CIRCLE ( 'NONE', #11, 7.000000000000000000 ) ;
#122 = PERSON_AND_ORGANIZATION ( #93, #145 ) ;
#123 = ADVANCED_FACE ( 'NONE', ( #219 ), #41, .T. ) ;
#124 = CARTESIAN_POINT ( 'NONE',  ( 0.000000000000000000, 0.000000000000000000, 7.000000000000000000 ) ) ;
#125 = CARTESIAN_POINT ( 'NONE',  ( 7.000000000000000000, 8.572527594031473190E-16, 200.0000000000000000 ) ) ;
#126 = EDGE_CURVE ( 'NONE', #211, #151, #172, .T. ) ;
#127 = EDGE_LOOP ( 'NONE', ( #112, #35, #20, #173 ) ) ;
#128 = APPROVAL_PERSON_ORGANIZATION ( #94, #139, #206 ) ;
#129 = DATE_AND_TIME ( #55, #109 ) ;
#130 = ORIENTED_EDGE ( 'NONE', *, *, #25, .T. ) ;
#131 = PERSON_AND_ORGANIZATION_ROLE ( 'classification_officer' ) ;
#132 = ORIENTED_EDGE ( 'NONE', *, *, #251, .F. ) ;
#133 = AXIS2_PLACEMENT_3D ( 'NONE', #18, #162, #142 ) ;
#134 = VERTEX_POINT ( 'NONE', #194 ) ;
#135 = CARTESIAN_POINT ( 'NONE',  ( -7.000000000000000000, 0.000000000000000000, 7.000000000000000000 ) ) ;
#136 = DIRECTION ( 'NONE',  ( 1.000000000000000000, 0.000000000000000000, 0.000000000000000000 ) ) ;
#137 = AXIS2_PLACEMENT_3D ( 'NONE', #28, #6, #244 ) ;
#138 = LINE ( 'NONE', #192, #84 ) ;
#139 = APPROVAL ( #229, 'NEURÈENÝ' ) ;
#140 = DIRECTION ( 'NONE',  ( 0.000000000000000000, 0.000000000000000000, 1.000000000000000000 ) ) ;
#141 = FACE_OUTER_BOUND ( 'NONE', #213, .T. ) ;
#142 = DIRECTION ( 'NONE',  ( 1.000000000000000000, 0.000000000000000000, 0.000000000000000000 ) ) ;
#143 = AXIS2_PLACEMENT_3D ( 'NONE', #120, #252, #154 ) ;
#144 =( LENGTH_UNIT ( ) NAMED_UNIT ( * ) SI_UNIT ( .MILLI., .METRE. ) );
#145 = ORGANIZATION ( 'NEURÈENÝ', 'NEURÈENÝ', '' ) ;
#146 = FACE_OUTER_BOUND ( 'NONE', #60, .T. ) ;
#147 = CALENDAR_DATE ( 2023, 13, 2 ) ;
#148 = ORIENTED_EDGE ( 'NONE', *, *, #64, .F. ) ;
#149 = EDGE_CURVE ( 'NONE', #134, #155, #250, .T. ) ;
#150 = AXIS2_PLACEMENT_3D ( 'NONE', #217, #66, #171 ) ;
#151 = VERTEX_POINT ( 'NONE', #198 ) ;
#152 = CIRCLE ( 'NONE', #246, 7.000000000000000000 ) ;
#153 = ORIENTED_EDGE ( 'NONE', *, *, #126, .T. ) ;
#154 = DIRECTION ( 'NONE',  ( -1.000000000000000000, 0.000000000000000000, 0.000000000000000000 ) ) ;
#155 = VERTEX_POINT ( 'NONE', #245 ) ;
#156 = PLANE ( 'NONE',  #110 ) ;
#157 = LINE ( 'NONE', #169, #33 ) ;
#158 = DIRECTION ( 'NONE',  ( 0.000000000000000000, 0.000000000000000000, 1.000000000000000000 ) ) ;
#159 = PLANE ( 'NONE',  #176 ) ;
#160 = CIRCLE ( 'NONE', #191, 7.000000000000000000 ) ;
#161 = APPROVAL ( #232, 'NEURÈENÝ' ) ;
#162 = DIRECTION ( 'NONE',  ( 0.000000000000000000, 0.000000000000000000, 1.000000000000000000 ) ) ;
#163 = CIRCLE ( 'NONE', #183, 11.00000000000000000 ) ;
#164 = APPROVAL_ROLE ( '' ) ;
#165 = EDGE_LOOP ( 'NONE', ( #19, #148 ) ) ;
#166 = SHAPE_DEFINITION_REPRESENTATION ( #181, #174 ) ;
#167 = SECURITY_CLASSIFICATION ( '', '', #190 ) ;
#168 = DATE_AND_TIME ( #248, #193 ) ;
#169 = CARTESIAN_POINT ( 'NONE',  ( -7.000000000000000000, 0.000000000000000000, 200.0000000000000000 ) ) ;
#170 = CC_DESIGN_SECURITY_CLASSIFICATION ( #167, ( #98 ) ) ;
#171 = DIRECTION ( 'NONE',  ( -1.000000000000000000, 0.000000000000000000, 0.000000000000000000 ) ) ;
#172 = CIRCLE ( 'NONE', #68, 11.00000000000000000 ) ;
#173 = ORIENTED_EDGE ( 'NONE', *, *, #5, .T. ) ;
#174 = ADVANCED_BREP_SHAPE_REPRESENTATION ( '6f0d', ( #13, #234 ), #47 ) ;
#175 = CARTESIAN_POINT ( 'NONE',  ( -7.000000000000000000, 0.000000000000000000, 200.0000000000000000 ) ) ;
#176 = AXIS2_PLACEMENT_3D ( 'NONE', #124, #86, #182 ) ;
#177 = DIRECTION ( 'NONE',  ( 0.000000000000000000, 0.000000000000000000, 1.000000000000000000 ) ) ;
#178 = DIRECTION ( 'NONE',  ( 1.000000000000000000, 0.000000000000000000, 0.000000000000000000 ) ) ;
#179 = CIRCLE ( 'NONE', #102, 7.000000000000000000 ) ;
#180 = CALENDAR_DATE ( 2023, 13, 2 ) ;
#181 = PRODUCT_DEFINITION_SHAPE ( 'NONE', 'NONE',  #58 ) ;
#182 = DIRECTION ( 'NONE',  ( 1.000000000000000000, 0.000000000000000000, -0.000000000000000000 ) ) ;
#183 = AXIS2_PLACEMENT_3D ( 'NONE', #70, #45, #24 ) ;
#184 = MECHANICAL_CONTEXT ( 'NONE', #114, 'mechanical' ) ;
#185 = PERSON_AND_ORGANIZATION_ROLE ( 'creator' ) ;
#186 = CC_DESIGN_APPROVAL ( #8, ( #58 ) ) ;
#187 = DATE_TIME_ROLE ( 'classification_date' ) ;
#188 = EDGE_CURVE ( 'NONE', #52, #14, #23, .T. ) ;
#189 = ORIENTED_EDGE ( 'NONE', *, *, #251, .T. ) ;
#190 = SECURITY_CLASSIFICATION_LEVEL ( 'unclassified' ) ;
#191 = AXIS2_PLACEMENT_3D ( 'NONE', #17, #177, #38 ) ;
#192 = CARTESIAN_POINT ( 'NONE',  ( 11.00000000000000000, 1.347111479062088405E-15, 7.000000000000000000 ) ) ;
#193 = LOCAL_TIME ( 11, 43, 18.00000000000000000, #76 ) ;
#194 = CARTESIAN_POINT ( 'NONE',  ( 11.00000000000000000, 1.347111479062088405E-15, 7.000000000000000000 ) ) ;
#195 = DIRECTION ( 'NONE',  ( 0.000000000000000000, 0.000000000000000000, 1.000000000000000000 ) ) ;
#196 = DIRECTION ( 'NONE',  ( 1.000000000000000000, 0.000000000000000000, -0.000000000000000000 ) ) ;
#197 = LOCAL_TIME ( 11, 43, 18.00000000000000000, #29 ) ;
#198 = CARTESIAN_POINT ( 'NONE',  ( -11.00000000000000000, 0.000000000000000000, 0.000000000000000000 ) ) ;
#199 = APPROVAL_STATUS ( 'not_yet_approved' ) ;
#200 = VECTOR ( 'NONE', #40, 1000.000000000000000 ) ;
#201 =( NAMED_UNIT ( * ) PLANE_ANGLE_UNIT ( ) SI_UNIT ( $, .RADIAN. ) );
#202 = CC_DESIGN_DATE_AND_TIME_ASSIGNMENT ( #71, #210, ( #58 ) ) ;
#203 = FACE_BOUND ( 'NONE', #165, .T. ) ;
#204 = CARTESIAN_POINT ( 'NONE',  ( 0.000000000000000000, 0.000000000000000000, 7.000000000000000000 ) ) ;
#205 = CIRCLE ( 'NONE', #91, 11.00000000000000000 ) ;
#206 = APPROVAL_ROLE ( '' ) ;
#207 = ORIENTED_EDGE ( 'NONE', *, *, #44, .T. ) ;
#208 = PERSON_AND_ORGANIZATION ( #93, #145 ) ;
#209 = ADVANCED_FACE ( 'NONE', ( #203, #241 ), #159, .T. ) ;
#210 = DATE_TIME_ROLE ( 'creation_date' ) ;
#211 = VERTEX_POINT ( 'NONE', #223 ) ;
#212 = CC_DESIGN_APPROVAL ( #139, ( #98 ) ) ;
#213 = EDGE_LOOP ( 'NONE', ( #32, #99 ) ) ;
#214 = DIRECTION ( 'NONE',  ( 1.000000000000000000, 0.000000000000000000, -0.000000000000000000 ) ) ;
#215 = CYLINDRICAL_SURFACE ( 'NONE', #150, 11.00000000000000000 ) ;
#216 = DIRECTION ( 'NONE',  ( 1.000000000000000000, 0.000000000000000000, 0.000000000000000000 ) ) ;
#217 = CARTESIAN_POINT ( 'NONE',  ( 0.000000000000000000, 0.000000000000000000, 7.000000000000000000 ) ) ;
#218 = CC_DESIGN_PERSON_AND_ORGANIZATION_ASSIGNMENT ( #12, #92, ( #98 ) ) ;
#219 = FACE_OUTER_BOUND ( 'NONE', #127, .T. ) ;
#220 = APPLICATION_PROTOCOL_DEFINITION ( 'international standard', 'config_control_design', 1994, #230 ) ;
#221 = PERSON_AND_ORGANIZATION_ROLE ( 'design_owner' ) ;
#222 = AXIS2_PLACEMENT_3D ( 'NONE', #79, #118, #196 ) ;
#223 = CARTESIAN_POINT ( 'NONE',  ( 11.00000000000000000, 1.347111479062088405E-15, 0.000000000000000000 ) ) ;
#224 = DIRECTION ( 'NONE',  ( 0.000000000000000000, 0.000000000000000000, 1.000000000000000000 ) ) ;
#225 = ADVANCED_FACE ( 'NONE', ( #146 ), #108, .T. ) ;
#226 = APPLICATION_PROTOCOL_DEFINITION ( 'international standard', 'config_control_design', 1994, #114 ) ;
#227 = PERSON_AND_ORGANIZATION_ROLE ( 'creator' ) ;
#228 = ORIENTED_EDGE ( 'NONE', *, *, #149, .F. ) ;
#229 = APPROVAL_STATUS ( 'not_yet_approved' ) ;
#230 = APPLICATION_CONTEXT ( 'configuration controlled 3d designs of mechanical parts and assemblies' ) ;
#231 = CC_DESIGN_PERSON_AND_ORGANIZATION_ASSIGNMENT ( #51, #227, ( #58 ) ) ;
#232 = APPROVAL_STATUS ( 'not_yet_approved' ) ;
#233 = ORIENTED_EDGE ( 'NONE', *, *, #53, .F. ) ;
#234 = AXIS2_PLACEMENT_3D ( 'NONE', #43, #224, #87 ) ;
#235 = ORIENTED_EDGE ( 'NONE', *, *, #44, .F. ) ;
#236 = CARTESIAN_POINT ( 'NONE',  ( 0.000000000000000000, 0.000000000000000000, 0.000000000000000000 ) ) ;
#237 = ADVANCED_FACE ( 'NONE', ( #106 ), #89, .T. ) ;
#238 = DIRECTION ( 'NONE',  ( 0.000000000000000000, 0.000000000000000000, 1.000000000000000000 ) ) ;
#239 = ORIENTED_EDGE ( 'NONE', *, *, #64, .T. ) ;
#240 = DIRECTION ( 'NONE',  ( 1.000000000000000000, 0.000000000000000000, 0.000000000000000000 ) ) ;
#241 = FACE_OUTER_BOUND ( 'NONE', #75, .T. ) ;
#242 = APPROVAL_DATE_TIME ( #2, #8 ) ;
#243 = EDGE_CURVE ( 'NONE', #52, #73, #152, .T. ) ;
#244 = DIRECTION ( 'NONE',  ( -1.000000000000000000, 0.000000000000000000, 0.000000000000000000 ) ) ;
#245 = CARTESIAN_POINT ( 'NONE',  ( -11.00000000000000000, 0.000000000000000000, 7.000000000000000000 ) ) ;
#246 = AXIS2_PLACEMENT_3D ( 'NONE', #27, #158, #178 ) ;
#247 = PRODUCT_RELATED_PRODUCT_CATEGORY ( 'detail', '', ( #3 ) ) ;
#248 = CALENDAR_DATE ( 2023, 13, 2 ) ;
#249 = ORIENTED_EDGE ( 'NONE', *, *, #25, .F. ) ;
#250 = CIRCLE ( 'NONE', #133, 11.00000000000000000 ) ;
#251 = EDGE_CURVE ( 'NONE', #155, #134, #163, .T. ) ;
#252 = DIRECTION ( 'NONE',  ( -0.000000000000000000, -0.000000000000000000, -1.000000000000000000 ) ) ;
#253 = PLANE ( 'NONE',  #222 ) ;
#254 = EDGE_LOOP ( 'NONE', ( #235, #132, #130, #50 ) ) ;
#255 = ORIENTED_EDGE ( 'NONE', *, *, #54, .F. ) ;
ENDSEC;
END-ISO-10303-21;
