ISO-10303-21;
HEADER;
FILE_DESCRIPTION (( 'STEP AP203' ),
    '1' );
FILE_NAME ('b106.STEP',
    '2023-02-13T10:40:20',
    ( '' ),
    ( '' ),
    'SwSTEP 2.0',
    'SolidWorks 2019',
    '' );
FILE_SCHEMA (( 'CONFIG_CONTROL_DESIGN' ));
ENDSEC;

DATA;
#1 = ORIENTED_EDGE ( 'NONE', *, *, #214, .T. ) ;
#2 = ORIENTED_EDGE ( 'NONE', *, *, #101, .T. ) ;
#3 = CARTESIAN_POINT ( 'NONE',  ( -11.00000000000000000, 0.000000000000000000, 0.000000000000000000 ) ) ;
#4 = ORIENTED_EDGE ( 'NONE', *, *, #160, .T. ) ;
#5 = ORIENTED_EDGE ( 'NONE', *, *, #244, .F. ) ;
#6 = DIRECTION ( 'NONE',  ( 0.000000000000000000, 0.000000000000000000, 1.000000000000000000 ) ) ;
#7 = CC_DESIGN_DATE_AND_TIME_ASSIGNMENT ( #66, #137, ( #70 ) ) ;
#8 = DIRECTION ( 'NONE',  ( -1.000000000000000000, 0.000000000000000000, 0.000000000000000000 ) ) ;
#9 = DIRECTION ( 'NONE',  ( 1.000000000000000000, 0.000000000000000000, 0.000000000000000000 ) ) ;
#10 = CARTESIAN_POINT ( 'NONE',  ( -7.500000000000000000, 0.000000000000000000, 100.0000000000000000 ) ) ;
#11 = CARTESIAN_POINT ( 'NONE',  ( 0.000000000000000000, 0.000000000000000000, 0.000000000000000000 ) ) ;
#12 = DIRECTION ( 'NONE',  ( 0.000000000000000000, 0.000000000000000000, 1.000000000000000000 ) ) ;
#13 = CIRCLE ( 'NONE', #235, 7.500000000000000000 ) ;
#14 = CARTESIAN_POINT ( 'NONE',  ( 0.000000000000000000, 0.000000000000000000, 0.000000000000000000 ) ) ;
#15 = AXIS2_PLACEMENT_3D ( 'NONE', #200, #220, #198 ) ;
#16 = PERSON_AND_ORGANIZATION_ROLE ( 'classification_officer' ) ;
#17 = CC_DESIGN_PERSON_AND_ORGANIZATION_ASSIGNMENT ( #97, #16, ( #70 ) ) ;
#18 = MECHANICAL_CONTEXT ( 'NONE', #203, 'mechanical' ) ;
#19 = DIRECTION ( 'NONE',  ( -1.000000000000000000, 0.000000000000000000, 0.000000000000000000 ) ) ;
#20 = ORIENTED_EDGE ( 'NONE', *, *, #101, .F. ) ;
#21 = UNCERTAINTY_MEASURE_WITH_UNIT (LENGTH_MEASURE( 1.000000000000000082E-05 ), #50, 'distance_accuracy_value', 'NONE');
#22 = EDGE_LOOP ( 'NONE', ( #20, #216, #136, #157 ) ) ;
#23 = VERTEX_POINT ( 'NONE', #84 ) ;
#24 = ADVANCED_FACE ( 'NONE', ( #86, #162 ), #72, .T. ) ;
#25 = DIRECTION ( 'NONE',  ( -0.000000000000000000, -0.000000000000000000, -1.000000000000000000 ) ) ;
#26 = CARTESIAN_POINT ( 'NONE',  ( -11.00000000000000000, 0.000000000000000000, 7.000000000000000000 ) ) ;
#27 = EDGE_CURVE ( 'NONE', #122, #98, #103, .T. ) ;
#28 = CLOSED_SHELL ( 'NONE', ( #239, #156, #224, #24, #212, #75, #36 ) ) ;
#29 = CC_DESIGN_PERSON_AND_ORGANIZATION_ASSIGNMENT ( #94, #76, ( #51 ) ) ;
#30 = APPROVAL_STATUS ( 'not_yet_approved' ) ;
#31 = DIRECTION ( 'NONE',  ( 1.000000000000000000, 0.000000000000000000, 0.000000000000000000 ) ) ;
#32 = LINE ( 'NONE', #145, #233 ) ;
#33 = AXIS2_PLACEMENT_3D ( 'NONE', #148, #80, #39 ) ;
#34 = PERSON_AND_ORGANIZATION ( #245, #109 ) ;
#35 = AXIS2_PLACEMENT_3D ( 'NONE', #204, #108, #31 ) ;
#36 = ADVANCED_FACE ( 'NONE', ( #159 ), #87, .T. ) ;
#37 = COORDINATED_UNIVERSAL_TIME_OFFSET ( 1, 0, .AHEAD. ) ;
#38 = APPROVAL_ROLE ( '' ) ;
#39 = DIRECTION ( 'NONE',  ( 1.000000000000000000, 0.000000000000000000, 0.000000000000000000 ) ) ;
#40 = AXIS2_PLACEMENT_3D ( 'NONE', #105, #6, #178 ) ;
#41 = ORIENTED_EDGE ( 'NONE', *, *, #128, .T. ) ;
#42 = FACE_OUTER_BOUND ( 'NONE', #22, .T. ) ;
#43 = EDGE_LOOP ( 'NONE', ( #213, #196, #236, #55 ) ) ;
#44 = CIRCLE ( 'NONE', #40, 7.500000000000000000 ) ;
#45 = EDGE_LOOP ( 'NONE', ( #41, #115 ) ) ;
#46 = FACE_OUTER_BOUND ( 'NONE', #64, .T. ) ;
#47 = SHAPE_DEFINITION_REPRESENTATION ( #185, #201 ) ;
#48 = CIRCLE ( 'NONE', #209, 11.00000000000000000 ) ;
#49 = CARTESIAN_POINT ( 'NONE',  ( 11.00000000000000000, 1.347111479062088405E-15, 7.000000000000000000 ) ) ;
#50 =( LENGTH_UNIT ( ) NAMED_UNIT ( * ) SI_UNIT ( .MILLI., .METRE. ) );
#51 = PRODUCT ( 'b106', 'b106', '', ( #18 ) ) ;
#52 = DATE_TIME_ROLE ( 'creation_date' ) ;
#53 = DATE_AND_TIME ( #228, #138 ) ;
#54 = CARTESIAN_POINT ( 'NONE',  ( -7.500000000000000000, 0.000000000000000000, 100.0000000000000000 ) ) ;
#55 = ORIENTED_EDGE ( 'NONE', *, *, #83, .F. ) ;
#56 = APPLICATION_PROTOCOL_DEFINITION ( 'international standard', 'config_control_design', 1994, #78 ) ;
#57 = AXIS2_PLACEMENT_3D ( 'NONE', #255, #58, #19 ) ;
#58 = DIRECTION ( 'NONE',  ( -0.000000000000000000, -0.000000000000000000, -1.000000000000000000 ) ) ;
#59 = VERTEX_POINT ( 'NONE', #231 ) ;
#60 = ORIENTED_EDGE ( 'NONE', *, *, #188, .T. ) ;
#61 = CC_DESIGN_PERSON_AND_ORGANIZATION_ASSIGNMENT ( #34, #168, ( #174 ) ) ;
#62 = FACE_OUTER_BOUND ( 'NONE', #43, .T. ) ;
#63 = AXIS2_PLACEMENT_3D ( 'NONE', #141, #243, #69 ) ;
#64 = EDGE_LOOP ( 'NONE', ( #232, #151 ) ) ;
#65 = APPROVAL_PERSON_ORGANIZATION ( #208, #183, #38 ) ;
#66 = DATE_AND_TIME ( #240, #96 ) ;
#67 = DIRECTION ( 'NONE',  ( 1.000000000000000000, 0.000000000000000000, -0.000000000000000000 ) ) ;
#68 = DIRECTION ( 'NONE',  ( 0.000000000000000000, 0.000000000000000000, 1.000000000000000000 ) ) ;
#69 = DIRECTION ( 'NONE',  ( 1.000000000000000000, 0.000000000000000000, -0.000000000000000000 ) ) ;
#70 = SECURITY_CLASSIFICATION ( '', '', #191 ) ;
#71 = EDGE_CURVE ( 'NONE', #98, #122, #120, .T. ) ;
#72 = PLANE ( 'NONE',  #166 ) ;
#73 = DIRECTION ( 'NONE',  ( 1.000000000000000000, 0.000000000000000000, 0.000000000000000000 ) ) ;
#74 = AXIS2_PLACEMENT_3D ( 'NONE', #227, #247, #248 ) ;
#75 = ADVANCED_FACE ( 'NONE', ( #135 ), #169, .T. ) ;
#76 = PERSON_AND_ORGANIZATION_ROLE ( 'design_owner' ) ;
#77 = CARTESIAN_POINT ( 'NONE',  ( 11.00000000000000000, 1.347111479062088405E-15, 0.000000000000000000 ) ) ;
#78 = APPLICATION_CONTEXT ( 'configuration controlled 3d designs of mechanical parts and assemblies' ) ;
#79 = CIRCLE ( 'NONE', #15, 7.500000000000000000 ) ;
#80 = DIRECTION ( 'NONE',  ( 0.000000000000000000, 0.000000000000000000, 1.000000000000000000 ) ) ;
#81 = AXIS2_PLACEMENT_3D ( 'NONE', #241, #68, #67 ) ;
#82 = EDGE_LOOP ( 'NONE', ( #118, #140 ) ) ;
#83 = EDGE_CURVE ( 'NONE', #192, #59, #100, .T. ) ;
#84 = CARTESIAN_POINT ( 'NONE',  ( -11.00000000000000000, 0.000000000000000000, 7.000000000000000000 ) ) ;
#85 = EDGE_LOOP ( 'NONE', ( #5, #2, #155, #199 ) ) ;
#86 = FACE_BOUND ( 'NONE', #82, .T. ) ;
#87 = PLANE ( 'NONE',  #63 ) ;
#88 = DIRECTION ( 'NONE',  ( 1.000000000000000000, 0.000000000000000000, -0.000000000000000000 ) ) ;
#89 = APPROVAL ( #30, 'NEURÈENÝ' ) ;
#90 = APPLICATION_PROTOCOL_DEFINITION ( 'international standard', 'config_control_design', 1994, #203 ) ;
#91 = COORDINATED_UNIVERSAL_TIME_OFFSET ( 1, 0, .AHEAD. ) ;
#92 = DIRECTION ( 'NONE',  ( -0.000000000000000000, -0.000000000000000000, -1.000000000000000000 ) ) ;
#93 = CIRCLE ( 'NONE', #33, 11.00000000000000000 ) ;
#94 = PERSON_AND_ORGANIZATION ( #245, #109 ) ;
#95 = CALENDAR_DATE ( 2023, 13, 2 ) ;
#96 = LOCAL_TIME ( 11, 40, 20.00000000000000000, #134 ) ;
#97 = PERSON_AND_ORGANIZATION ( #245, #109 ) ;
#98 = VERTEX_POINT ( 'NONE', #77 ) ;
#99 = APPROVAL_DATE_TIME ( #193, #183 ) ;
#100 = LINE ( 'NONE', #54, #125 ) ;
#101 = EDGE_CURVE ( 'NONE', #153, #98, #32, .T. ) ;
#102 = VERTEX_POINT ( 'NONE', #170 ) ;
#103 = CIRCLE ( 'NONE', #123, 11.00000000000000000 ) ;
#104 = ORIENTED_EDGE ( 'NONE', *, *, #214, .F. ) ;
#105 = CARTESIAN_POINT ( 'NONE',  ( 0.000000000000000000, 0.000000000000000000, 100.0000000000000000 ) ) ;
#106 = DATE_AND_TIME ( #250, #246 ) ;
#107 = CC_DESIGN_DATE_AND_TIME_ASSIGNMENT ( #53, #52, ( #195 ) ) ;
#108 = DIRECTION ( 'NONE',  ( 0.000000000000000000, 0.000000000000000000, 1.000000000000000000 ) ) ;
#109 = ORGANIZATION ( 'NEURÈENÝ', 'NEURÈENÝ', '' ) ;
#110 = APPROVAL_ROLE ( '' ) ;
#111 = FACE_OUTER_BOUND ( 'NONE', #85, .T. ) ;
#112 = CC_DESIGN_PERSON_AND_ORGANIZATION_ASSIGNMENT ( #190, #254, ( #195 ) ) ;
#113 = PERSON_AND_ORGANIZATION ( #245, #109 ) ;
#114 = CC_DESIGN_SECURITY_CLASSIFICATION ( #70, ( #174 ) ) ;
#115 = ORIENTED_EDGE ( 'NONE', *, *, #244, .T. ) ;
#116 = APPROVAL_STATUS ( 'not_yet_approved' ) ;
#117 = EDGE_CURVE ( 'NONE', #121, #59, #13, .T. ) ;
#118 = ORIENTED_EDGE ( 'NONE', *, *, #160, .F. ) ;
#119 = MANIFOLD_SOLID_BREP ( 'Pøidat vysunutím3', #28 ) ;
#120 = CIRCLE ( 'NONE', #205, 11.00000000000000000 ) ;
#121 = VERTEX_POINT ( 'NONE', #132 ) ;
#122 = VERTEX_POINT ( 'NONE', #3 ) ;
#123 = AXIS2_PLACEMENT_3D ( 'NONE', #11, #161, #9 ) ;
#124 =( NAMED_UNIT ( * ) SI_UNIT ( $, .STERADIAN. ) SOLID_ANGLE_UNIT ( ) );
#125 = VECTOR ( 'NONE', #92, 1000.000000000000000 ) ;
#126 = LOCAL_TIME ( 11, 40, 20.00000000000000000, #252 ) ;
#127 = APPROVAL_ROLE ( '' ) ;
#128 = EDGE_CURVE ( 'NONE', #23, #153, #93, .T. ) ;
#129 = CALENDAR_DATE ( 2023, 13, 2 ) ;
#130 = DIRECTION ( 'NONE',  ( 1.000000000000000000, 0.000000000000000000, 0.000000000000000000 ) ) ;
#131 = CARTESIAN_POINT ( 'NONE',  ( 0.000000000000000000, 0.000000000000000000, 7.000000000000000000 ) ) ;
#132 = CARTESIAN_POINT ( 'NONE',  ( 7.500000000000000000, 9.184850993605145972E-16, 7.000000000000000000 ) ) ;
#133 = ORIENTED_EDGE ( 'NONE', *, *, #142, .F. ) ;
#134 = COORDINATED_UNIVERSAL_TIME_OFFSET ( 1, 0, .AHEAD. ) ;
#135 = FACE_OUTER_BOUND ( 'NONE', #173, .T. ) ;
#136 = ORIENTED_EDGE ( 'NONE', *, *, #179, .T. ) ;
#137 = DATE_TIME_ROLE ( 'classification_date' ) ;
#138 = LOCAL_TIME ( 11, 40, 20.00000000000000000, #164 ) ;
#139 = CC_DESIGN_PERSON_AND_ORGANIZATION_ASSIGNMENT ( #113, #189, ( #174 ) ) ;
#140 = ORIENTED_EDGE ( 'NONE', *, *, #117, .F. ) ;
#141 = CARTESIAN_POINT ( 'NONE',  ( 0.000000000000000000, 0.000000000000000000, 100.0000000000000000 ) ) ;
#142 = EDGE_CURVE ( 'NONE', #102, #121, #249, .T. ) ;
#143 =( NAMED_UNIT ( * ) PLANE_ANGLE_UNIT ( ) SI_UNIT ( $, .RADIAN. ) );
#144 = CARTESIAN_POINT ( 'NONE',  ( 0.000000000000000000, 0.000000000000000000, 7.000000000000000000 ) ) ;
#145 = CARTESIAN_POINT ( 'NONE',  ( 11.00000000000000000, 1.347111479062088405E-15, 7.000000000000000000 ) ) ;
#146 = VECTOR ( 'NONE', #25, 1000.000000000000000 ) ;
#147 = APPROVAL ( #116, 'NEURÈENÝ' ) ;
#148 = CARTESIAN_POINT ( 'NONE',  ( 0.000000000000000000, 0.000000000000000000, 7.000000000000000000 ) ) ;
#149 = DATE_AND_TIME ( #129, #253 ) ;
#150 = PRODUCT_RELATED_PRODUCT_CATEGORY ( 'detail', '', ( #51 ) ) ;
#151 = ORIENTED_EDGE ( 'NONE', *, *, #71, .F. ) ;
#152 = DIRECTION ( 'NONE',  ( -0.000000000000000000, -0.000000000000000000, -1.000000000000000000 ) ) ;
#153 = VERTEX_POINT ( 'NONE', #49 ) ;
#154 = DIRECTION ( 'NONE',  ( -0.000000000000000000, -0.000000000000000000, -1.000000000000000000 ) ) ;
#155 = ORIENTED_EDGE ( 'NONE', *, *, #71, .T. ) ;
#156 = ADVANCED_FACE ( 'NONE', ( #111 ), #186, .T. ) ;
#157 = ORIENTED_EDGE ( 'NONE', *, *, #27, .T. ) ;
#158 = VECTOR ( 'NONE', #152, 1000.000000000000000 ) ;
#159 = FACE_OUTER_BOUND ( 'NONE', #176, .T. ) ;
#160 = EDGE_CURVE ( 'NONE', #59, #121, #79, .T. ) ;
#161 = DIRECTION ( 'NONE',  ( 0.000000000000000000, 0.000000000000000000, 1.000000000000000000 ) ) ;
#162 = FACE_OUTER_BOUND ( 'NONE', #45, .T. ) ;
#163 = DIRECTION ( 'NONE',  ( -0.000000000000000000, -0.000000000000000000, -1.000000000000000000 ) ) ;
#164 = COORDINATED_UNIVERSAL_TIME_OFFSET ( 1, 0, .AHEAD. ) ;
#165 = DIRECTION ( 'NONE',  ( 1.000000000000000000, 0.000000000000000000, 0.000000000000000000 ) ) ;
#166 = AXIS2_PLACEMENT_3D ( 'NONE', #144, #12, #88 ) ;
#167 = CC_DESIGN_APPROVAL ( #147, ( #195 ) ) ;
#168 = PERSON_AND_ORGANIZATION_ROLE ( 'creator' ) ;
#169 = CYLINDRICAL_SURFACE ( 'NONE', #57, 7.500000000000000000 ) ;
#170 = CARTESIAN_POINT ( 'NONE',  ( 7.500000000000000000, 9.184850993605145972E-16, 100.0000000000000000 ) ) ;
#171 = DESIGN_CONTEXT ( 'detailed design', #78, 'design' ) ;
#172 = DIRECTION ( 'NONE',  ( 0.000000000000000000, 0.000000000000000000, 1.000000000000000000 ) ) ;
#173 = EDGE_LOOP ( 'NONE', ( #133, #104, #177, #4 ) ) ;
#174 = PRODUCT_DEFINITION_FORMATION_WITH_SPECIFIED_SOURCE ( 'LIBOVOLNÝ', '', #51, .NOT_KNOWN. ) ;
#175 = CARTESIAN_POINT ( 'NONE',  ( 0.000000000000000000, 0.000000000000000000, 7.000000000000000000 ) ) ;
#176 = EDGE_LOOP ( 'NONE', ( #1, #60 ) ) ;
#177 = ORIENTED_EDGE ( 'NONE', *, *, #83, .T. ) ;
#178 = DIRECTION ( 'NONE',  ( 1.000000000000000000, 0.000000000000000000, 0.000000000000000000 ) ) ;
#179 = EDGE_CURVE ( 'NONE', #23, #122, #242, .T. ) ;
#180 = CIRCLE ( 'NONE', #197, 7.500000000000000000 ) ;
#181 = DIRECTION ( 'NONE',  ( 0.000000000000000000, 0.000000000000000000, 1.000000000000000000 ) ) ;
#182 =( GEOMETRIC_REPRESENTATION_CONTEXT ( 3 ) GLOBAL_UNCERTAINTY_ASSIGNED_CONTEXT ( ( #21 ) ) GLOBAL_UNIT_ASSIGNED_CONTEXT ( ( #50, #143, #124 ) ) REPRESENTATION_CONTEXT ( 'NONE', 'WORKASPACE' ) );
#183 = APPROVAL ( #211, 'NEURÈENÝ' ) ;
#184 = CYLINDRICAL_SURFACE ( 'NONE', #74, 7.500000000000000000 ) ;
#185 = PRODUCT_DEFINITION_SHAPE ( 'NONE', 'NONE',  #195 ) ;
#186 = CYLINDRICAL_SURFACE ( 'NONE', #187, 11.00000000000000000 ) ;
#187 = AXIS2_PLACEMENT_3D ( 'NONE', #229, #219, #8 ) ;
#188 = EDGE_CURVE ( 'NONE', #102, #192, #44, .T. ) ;
#189 = PERSON_AND_ORGANIZATION_ROLE ( 'design_supplier' ) ;
#190 = PERSON_AND_ORGANIZATION ( #245, #109 ) ;
#191 = SECURITY_CLASSIFICATION_LEVEL ( 'unclassified' ) ;
#192 = VERTEX_POINT ( 'NONE', #10 ) ;
#193 = DATE_AND_TIME ( #95, #126 ) ;
#194 = CYLINDRICAL_SURFACE ( 'NONE', #251, 11.00000000000000000 ) ;
#195 = PRODUCT_DEFINITION ( 'NEZNÁMÝ', '', #174, #171 ) ;
#196 = ORIENTED_EDGE ( 'NONE', *, *, #142, .T. ) ;
#197 = AXIS2_PLACEMENT_3D ( 'NONE', #221, #181, #215 ) ;
#198 = DIRECTION ( 'NONE',  ( 1.000000000000000000, 0.000000000000000000, 0.000000000000000000 ) ) ;
#199 = ORIENTED_EDGE ( 'NONE', *, *, #179, .F. ) ;
#200 = CARTESIAN_POINT ( 'NONE',  ( 0.000000000000000000, 0.000000000000000000, 7.000000000000000000 ) ) ;
#201 = ADVANCED_BREP_SHAPE_REPRESENTATION ( 'b106', ( #119, #35 ), #182 ) ;
#202 = CARTESIAN_POINT ( 'NONE',  ( 0.000000000000000000, 0.000000000000000000, 7.000000000000000000 ) ) ;
#203 = APPLICATION_CONTEXT ( 'configuration controlled 3d designs of mechanical parts and assemblies' ) ;
#204 = CARTESIAN_POINT ( 'NONE',  ( 0.000000000000000000, 0.000000000000000000, 0.000000000000000000 ) ) ;
#205 = AXIS2_PLACEMENT_3D ( 'NONE', #14, #207, #130 ) ;
#206 = CC_DESIGN_APPROVAL ( #183, ( #174 ) ) ;
#207 = DIRECTION ( 'NONE',  ( 0.000000000000000000, 0.000000000000000000, 1.000000000000000000 ) ) ;
#208 = PERSON_AND_ORGANIZATION ( #245, #109 ) ;
#209 = AXIS2_PLACEMENT_3D ( 'NONE', #202, #225, #73 ) ;
#210 = PERSON_AND_ORGANIZATION ( #245, #109 ) ;
#211 = APPROVAL_STATUS ( 'not_yet_approved' ) ;
#212 = ADVANCED_FACE ( 'NONE', ( #46 ), #238, .F. ) ;
#213 = ORIENTED_EDGE ( 'NONE', *, *, #188, .F. ) ;
#214 = EDGE_CURVE ( 'NONE', #192, #102, #180, .T. ) ;
#215 = DIRECTION ( 'NONE',  ( 1.000000000000000000, 0.000000000000000000, 0.000000000000000000 ) ) ;
#216 = ORIENTED_EDGE ( 'NONE', *, *, #128, .F. ) ;
#217 = PERSON_AND_ORGANIZATION ( #245, #109 ) ;
#218 = CC_DESIGN_APPROVAL ( #89, ( #70 ) ) ;
#219 = DIRECTION ( 'NONE',  ( -0.000000000000000000, -0.000000000000000000, -1.000000000000000000 ) ) ;
#220 = DIRECTION ( 'NONE',  ( 0.000000000000000000, 0.000000000000000000, 1.000000000000000000 ) ) ;
#221 = CARTESIAN_POINT ( 'NONE',  ( 0.000000000000000000, 0.000000000000000000, 100.0000000000000000 ) ) ;
#222 = APPROVAL_DATE_TIME ( #106, #89 ) ;
#223 = APPROVAL_PERSON_ORGANIZATION ( #210, #147, #127 ) ;
#224 = ADVANCED_FACE ( 'NONE', ( #42 ), #194, .T. ) ;
#225 = DIRECTION ( 'NONE',  ( 0.000000000000000000, 0.000000000000000000, 1.000000000000000000 ) ) ;
#226 = CARTESIAN_POINT ( 'NONE',  ( 7.500000000000000000, 9.184850993605145972E-16, 100.0000000000000000 ) ) ;
#227 = CARTESIAN_POINT ( 'NONE',  ( 0.000000000000000000, 0.000000000000000000, 100.0000000000000000 ) ) ;
#228 = CALENDAR_DATE ( 2023, 13, 2 ) ;
#229 = CARTESIAN_POINT ( 'NONE',  ( 0.000000000000000000, 0.000000000000000000, 7.000000000000000000 ) ) ;
#230 = APPROVAL_DATE_TIME ( #149, #147 ) ;
#231 = CARTESIAN_POINT ( 'NONE',  ( -7.500000000000000000, 0.000000000000000000, 7.000000000000000000 ) ) ;
#232 = ORIENTED_EDGE ( 'NONE', *, *, #27, .F. ) ;
#233 = VECTOR ( 'NONE', #163, 1000.000000000000000 ) ;
#234 = DIRECTION ( 'NONE',  ( -1.000000000000000000, 0.000000000000000000, 0.000000000000000000 ) ) ;
#235 = AXIS2_PLACEMENT_3D ( 'NONE', #131, #172, #165 ) ;
#236 = ORIENTED_EDGE ( 'NONE', *, *, #117, .T. ) ;
#237 = APPROVAL_PERSON_ORGANIZATION ( #217, #89, #110 ) ;
#238 = PLANE ( 'NONE',  #81 ) ;
#239 = ADVANCED_FACE ( 'NONE', ( #62 ), #184, .T. ) ;
#240 = CALENDAR_DATE ( 2023, 13, 2 ) ;
#241 = CARTESIAN_POINT ( 'NONE',  ( 0.000000000000000000, 0.000000000000000000, 0.000000000000000000 ) ) ;
#242 = LINE ( 'NONE', #26, #146 ) ;
#243 = DIRECTION ( 'NONE',  ( 0.000000000000000000, 0.000000000000000000, 1.000000000000000000 ) ) ;
#244 = EDGE_CURVE ( 'NONE', #153, #23, #48, .T. ) ;
#245 = PERSON ( 'NEURÈENÝ', 'NEURÈENÝ', 'NEURÈENÝ', ('NEURÈENÝ'), ('NEURÈENÝ'), ('NEURÈENÝ') ) ;
#246 = LOCAL_TIME ( 11, 40, 20.00000000000000000, #91 ) ;
#247 = DIRECTION ( 'NONE',  ( -0.000000000000000000, -0.000000000000000000, -1.000000000000000000 ) ) ;
#248 = DIRECTION ( 'NONE',  ( -1.000000000000000000, 0.000000000000000000, 0.000000000000000000 ) ) ;
#249 = LINE ( 'NONE', #226, #158 ) ;
#250 = CALENDAR_DATE ( 2023, 13, 2 ) ;
#251 = AXIS2_PLACEMENT_3D ( 'NONE', #175, #154, #234 ) ;
#252 = COORDINATED_UNIVERSAL_TIME_OFFSET ( 1, 0, .AHEAD. ) ;
#253 = LOCAL_TIME ( 11, 40, 20.00000000000000000, #37 ) ;
#254 = PERSON_AND_ORGANIZATION_ROLE ( 'creator' ) ;
#255 = CARTESIAN_POINT ( 'NONE',  ( 0.000000000000000000, 0.000000000000000000, 100.0000000000000000 ) ) ;
ENDSEC;
END-ISO-10303-21;
