ISO-10303-21;
HEADER;
FILE_DESCRIPTION (( 'STEP AP203' ),
    '1' );
FILE_NAME ('0191.STEP',
    '2023-02-13T16:07:46',
    ( '' ),
    ( '' ),
    'SwSTEP 2.0',
    'SolidWorks 2019',
    '' );
FILE_SCHEMA (( 'CONFIG_CONTROL_DESIGN' ));
ENDSEC;

DATA;
#1 = EDGE_LOOP ( 'NONE', ( #133, #40, #21, #175 ) ) ;
#2 = VECTOR ( 'NONE', #39, 1000.000000000000000 ) ;
#3 = ORIENTED_EDGE ( 'NONE', *, *, #146, .F. ) ;
#4 = CARTESIAN_POINT ( 'NONE',  ( 0.000000000000000000, 0.000000000000000000, 400.0000000000000000 ) ) ;
#5 = CARTESIAN_POINT ( 'NONE',  ( -2.100000000000000089, 0.000000000000000000, 400.0000000000000000 ) ) ;
#6 = DIRECTION ( 'NONE',  ( -0.000000000000000000, -0.000000000000000000, -1.000000000000000000 ) ) ;
#7 = EDGE_CURVE ( 'NONE', #135, #59, #193, .T. ) ;
#8 = CARTESIAN_POINT ( 'NONE',  ( 0.000000000000000000, 0.000000000000000000, 400.0000000000000000 ) ) ;
#9 = DIRECTION ( 'NONE',  ( 1.000000000000000000, 0.000000000000000000, 0.000000000000000000 ) ) ;
#10 = DIRECTION ( 'NONE',  ( 1.000000000000000000, 0.000000000000000000, 0.000000000000000000 ) ) ;
#11 = PERSON_AND_ORGANIZATION ( #168, #42 ) ;
#12 = PERSON_AND_ORGANIZATION_ROLE ( 'design_supplier' ) ;
#13 = LOCAL_TIME ( 17, 7, 46.00000000000000000, #213 ) ;
#14 = PRODUCT_DEFINITION_SHAPE ( 'NONE', 'NONE',  #95 ) ;
#15 = APPROVAL_STATUS ( 'not_yet_approved' ) ;
#16 = PERSON_AND_ORGANIZATION_ROLE ( 'creator' ) ;
#17 = CIRCLE ( 'NONE', #252, 2.100000000000000089 ) ;
#18 = FACE_OUTER_BOUND ( 'NONE', #136, .T. ) ;
#19 = ORIENTED_EDGE ( 'NONE', *, *, #134, .T. ) ;
#20 = DIRECTION ( 'NONE',  ( -0.000000000000000000, -0.000000000000000000, -1.000000000000000000 ) ) ;
#21 = ORIENTED_EDGE ( 'NONE', *, *, #250, .T. ) ;
#22 = AXIS2_PLACEMENT_3D ( 'NONE', #205, #67, #25 ) ;
#23 = VECTOR ( 'NONE', #20, 1000.000000000000000 ) ;
#24 = DIRECTION ( 'NONE',  ( 1.000000000000000000, 0.000000000000000000, 0.000000000000000000 ) ) ;
#25 = DIRECTION ( 'NONE',  ( 1.000000000000000000, 0.000000000000000000, -0.000000000000000000 ) ) ;
#26 = FACE_OUTER_BOUND ( 'NONE', #35, .T. ) ;
#27 = CARTESIAN_POINT ( 'NONE',  ( 0.000000000000000000, 0.000000000000000000, 3.000000000000000000 ) ) ;
#28 = DIRECTION ( 'NONE',  ( 0.000000000000000000, 0.000000000000000000, 1.000000000000000000 ) ) ;
#29 = DATE_AND_TIME ( #212, #239 ) ;
#30 = CALENDAR_DATE ( 2023, 13, 2 ) ;
#31 = CC_DESIGN_PERSON_AND_ORGANIZATION_ASSIGNMENT ( #169, #229, ( #95 ) ) ;
#32 = AXIS2_PLACEMENT_3D ( 'NONE', #220, #82, #84 ) ;
#33 = PERSON_AND_ORGANIZATION ( #168, #42 ) ;
#34 = APPLICATION_PROTOCOL_DEFINITION ( 'international standard', 'config_control_design', 1994, #226 ) ;
#35 = EDGE_LOOP ( 'NONE', ( #3, #100 ) ) ;
#36 = CC_DESIGN_PERSON_AND_ORGANIZATION_ASSIGNMENT ( #11, #68, ( #198 ) ) ;
#37 = DIRECTION ( 'NONE',  ( 0.000000000000000000, 0.000000000000000000, 1.000000000000000000 ) ) ;
#38 = MANIFOLD_SOLID_BREP ( 'Pøidat vysunutím3', #110 ) ;
#39 = DIRECTION ( 'NONE',  ( -0.000000000000000000, -0.000000000000000000, -1.000000000000000000 ) ) ;
#40 = ORIENTED_EDGE ( 'NONE', *, *, #177, .F. ) ;
#41 = DIRECTION ( 'NONE',  ( 0.000000000000000000, 0.000000000000000000, 1.000000000000000000 ) ) ;
#42 = ORGANIZATION ( 'NEURÈENÝ', 'NEURÈENÝ', '' ) ;
#43 = DIRECTION ( 'NONE',  ( 1.000000000000000000, 0.000000000000000000, -0.000000000000000000 ) ) ;
#44 = AXIS2_PLACEMENT_3D ( 'NONE', #185, #238, #188 ) ;
#45 =( NAMED_UNIT ( * ) PLANE_ANGLE_UNIT ( ) SI_UNIT ( $, .RADIAN. ) );
#46 = CARTESIAN_POINT ( 'NONE',  ( -2.100000000000000089, 0.000000000000000000, 3.000000000000000000 ) ) ;
#47 = APPROVAL_PERSON_ORGANIZATION ( #33, #242, #51 ) ;
#48 = CYLINDRICAL_SURFACE ( 'NONE', #176, 4.000000000000000000 ) ;
#49 = CARTESIAN_POINT ( 'NONE',  ( -4.000000000000000000, 0.000000000000000000, 3.000000000000000000 ) ) ;
#50 = APPROVAL_DATE_TIME ( #129, #186 ) ;
#51 = APPROVAL_ROLE ( '' ) ;
#52 = EDGE_CURVE ( 'NONE', #98, #179, #221, .T. ) ;
#53 = APPLICATION_PROTOCOL_DEFINITION ( 'international standard', 'config_control_design', 1994, #75 ) ;
#54 = PRODUCT ( '0191', '0191', '', ( #127 ) ) ;
#55 = CIRCLE ( 'NONE', #202, 4.000000000000000000 ) ;
#56 = EDGE_LOOP ( 'NONE', ( #214, #203, #178, #159 ) ) ;
#57 = CARTESIAN_POINT ( 'NONE',  ( -4.000000000000000000, 0.000000000000000000, 3.000000000000000000 ) ) ;
#58 = CC_DESIGN_APPROVAL ( #242, ( #207 ) ) ;
#59 = VERTEX_POINT ( 'NONE', #57 ) ;
#60 = EDGE_LOOP ( 'NONE', ( #197, #235, #62, #156 ) ) ;
#61 = ADVANCED_BREP_SHAPE_REPRESENTATION ( '0191', ( #38, #181 ), #89 ) ;
#62 = ORIENTED_EDGE ( 'NONE', *, *, #52, .T. ) ;
#63 = FACE_OUTER_BOUND ( 'NONE', #56, .T. ) ;
#64 = DIRECTION ( 'NONE',  ( -1.000000000000000000, 0.000000000000000000, 0.000000000000000000 ) ) ;
#65 = CARTESIAN_POINT ( 'NONE',  ( 0.000000000000000000, 0.000000000000000000, 0.000000000000000000 ) ) ;
#66 = DIRECTION ( 'NONE',  ( -0.000000000000000000, -0.000000000000000000, -1.000000000000000000 ) ) ;
#67 = DIRECTION ( 'NONE',  ( 0.000000000000000000, 0.000000000000000000, 1.000000000000000000 ) ) ;
#68 = PERSON_AND_ORGANIZATION_ROLE ( 'classification_officer' ) ;
#69 = LOCAL_TIME ( 17, 7, 46.00000000000000000, #152 ) ;
#70 = DATE_AND_TIME ( #94, #206 ) ;
#71 = DIRECTION ( 'NONE',  ( 1.000000000000000000, 0.000000000000000000, 0.000000000000000000 ) ) ;
#72 = EDGE_CURVE ( 'NONE', #182, #98, #154, .T. ) ;
#73 = ORIENTED_EDGE ( 'NONE', *, *, #177, .T. ) ;
#74 = EDGE_LOOP ( 'NONE', ( #104, #117 ) ) ;
#75 = APPLICATION_CONTEXT ( 'configuration controlled 3d designs of mechanical parts and assemblies' ) ;
#76 = AXIS2_PLACEMENT_3D ( 'NONE', #80, #41, #201 ) ;
#77 = CARTESIAN_POINT ( 'NONE',  ( 2.100000000000000089, 2.571758278209441957E-16, 3.000000000000000000 ) ) ;
#78 = CC_DESIGN_PERSON_AND_ORGANIZATION_ASSIGNMENT ( #114, #147, ( #54 ) ) ;
#79 = VECTOR ( 'NONE', #6, 1000.000000000000000 ) ;
#80 = CARTESIAN_POINT ( 'NONE',  ( 0.000000000000000000, 0.000000000000000000, 3.000000000000000000 ) ) ;
#81 = ORIENTED_EDGE ( 'NONE', *, *, #128, .T. ) ;
#82 = DIRECTION ( 'NONE',  ( -0.000000000000000000, -0.000000000000000000, -1.000000000000000000 ) ) ;
#83 = CC_DESIGN_DATE_AND_TIME_ASSIGNMENT ( #29, #196, ( #95 ) ) ;
#84 = DIRECTION ( 'NONE',  ( -1.000000000000000000, 0.000000000000000000, 0.000000000000000000 ) ) ;
#85 = CARTESIAN_POINT ( 'NONE',  ( 4.000000000000000000, 4.898587196589412829E-16, 0.000000000000000000 ) ) ;
#86 = CYLINDRICAL_SURFACE ( 'NONE', #32, 2.100000000000000089 ) ;
#87 = CIRCLE ( 'NONE', #174, 4.000000000000000000 ) ;
#88 = FACE_OUTER_BOUND ( 'NONE', #180, .T. ) ;
#89 =( GEOMETRIC_REPRESENTATION_CONTEXT ( 3 ) GLOBAL_UNCERTAINTY_ASSIGNED_CONTEXT ( ( #184 ) ) GLOBAL_UNIT_ASSIGNED_CONTEXT ( ( #240, #45, #172 ) ) REPRESENTATION_CONTEXT ( 'NONE', 'WORKASPACE' ) );
#90 = PERSON_AND_ORGANIZATION ( #168, #42 ) ;
#91 = CC_DESIGN_PERSON_AND_ORGANIZATION_ASSIGNMENT ( #111, #12, ( #207 ) ) ;
#92 = CALENDAR_DATE ( 2023, 13, 2 ) ;
#93 = CC_DESIGN_SECURITY_CLASSIFICATION ( #198, ( #207 ) ) ;
#94 = CALENDAR_DATE ( 2023, 13, 2 ) ;
#95 = PRODUCT_DEFINITION ( 'NEZNÁMÝ', '', #207, #163 ) ;
#96 = CIRCLE ( 'NONE', #126, 4.000000000000000000 ) ;
#97 = PLANE ( 'NONE',  #22 ) ;
#98 = VERTEX_POINT ( 'NONE', #77 ) ;
#99 = CC_DESIGN_PERSON_AND_ORGANIZATION_ASSIGNMENT ( #90, #16, ( #207 ) ) ;
#100 = ORIENTED_EDGE ( 'NONE', *, *, #170, .F. ) ;
#101 = AXIS2_PLACEMENT_3D ( 'NONE', #4, #102, #24 ) ;
#102 = DIRECTION ( 'NONE',  ( 0.000000000000000000, 0.000000000000000000, 1.000000000000000000 ) ) ;
#103 = CC_DESIGN_APPROVAL ( #186, ( #95 ) ) ;
#104 = ORIENTED_EDGE ( 'NONE', *, *, #128, .F. ) ;
#105 = DIRECTION ( 'NONE',  ( 1.000000000000000000, 0.000000000000000000, 0.000000000000000000 ) ) ;
#106 = DIRECTION ( 'NONE',  ( 0.000000000000000000, 0.000000000000000000, 1.000000000000000000 ) ) ;
#107 = PLANE ( 'NONE',  #211 ) ;
#108 = CARTESIAN_POINT ( 'NONE',  ( 0.000000000000000000, 0.000000000000000000, 400.0000000000000000 ) ) ;
#109 = PLANE ( 'NONE',  #44 ) ;
#110 = CLOSED_SHELL ( 'NONE', ( #223, #231, #237, #209, #216, #228, #137 ) ) ;
#111 = PERSON_AND_ORGANIZATION ( #168, #42 ) ;
#112 = DATE_AND_TIME ( #30, #69 ) ;
#113 = AXIS2_PLACEMENT_3D ( 'NONE', #233, #254, #138 ) ;
#114 = PERSON_AND_ORGANIZATION ( #168, #42 ) ;
#115 = ORIENTED_EDGE ( 'NONE', *, *, #122, .T. ) ;
#116 = DIRECTION ( 'NONE',  ( 1.000000000000000000, 0.000000000000000000, 0.000000000000000000 ) ) ;
#117 = ORIENTED_EDGE ( 'NONE', *, *, #52, .F. ) ;
#118 = AXIS2_PLACEMENT_3D ( 'NONE', #108, #66, #64 ) ;
#119 = CARTESIAN_POINT ( 'NONE',  ( 2.100000000000000089, 2.571758278209441957E-16, 400.0000000000000000 ) ) ;
#120 = CARTESIAN_POINT ( 'NONE',  ( 0.000000000000000000, 0.000000000000000000, 3.000000000000000000 ) ) ;
#121 = CARTESIAN_POINT ( 'NONE',  ( 0.000000000000000000, 0.000000000000000000, 3.000000000000000000 ) ) ;
#122 = EDGE_CURVE ( 'NONE', #157, #182, #143, .T. ) ;
#123 = CARTESIAN_POINT ( 'NONE',  ( -4.000000000000000000, 0.000000000000000000, 0.000000000000000000 ) ) ;
#124 = DIRECTION ( 'NONE',  ( -1.000000000000000000, 0.000000000000000000, 0.000000000000000000 ) ) ;
#125 = COORDINATED_UNIVERSAL_TIME_OFFSET ( 1, 0, .AHEAD. ) ;
#126 = AXIS2_PLACEMENT_3D ( 'NONE', #121, #106, #9 ) ;
#127 = MECHANICAL_CONTEXT ( 'NONE', #226, 'mechanical' ) ;
#128 = EDGE_CURVE ( 'NONE', #179, #98, #17, .T. ) ;
#129 = DATE_AND_TIME ( #249, #13 ) ;
#130 = PRODUCT_RELATED_PRODUCT_CATEGORY ( 'detail', '', ( #54 ) ) ;
#131 = APPROVAL_ROLE ( '' ) ;
#132 = LINE ( 'NONE', #199, #23 ) ;
#133 = ORIENTED_EDGE ( 'NONE', *, *, #247, .F. ) ;
#134 = EDGE_CURVE ( 'NONE', #157, #179, #132, .T. ) ;
#135 = VERTEX_POINT ( 'NONE', #219 ) ;
#136 = EDGE_LOOP ( 'NONE', ( #115, #217 ) ) ;
#137 = ADVANCED_FACE ( 'NONE', ( #18 ), #97, .T. ) ;
#138 = DIRECTION ( 'NONE',  ( 1.000000000000000000, 0.000000000000000000, 0.000000000000000000 ) ) ;
#139 = LINE ( 'NONE', #49, #79 ) ;
#140 = FACE_OUTER_BOUND ( 'NONE', #255, .T. ) ;
#141 = CC_DESIGN_DATE_AND_TIME_ASSIGNMENT ( #251, #248, ( #198 ) ) ;
#142 = CARTESIAN_POINT ( 'NONE',  ( 0.000000000000000000, 0.000000000000000000, 0.000000000000000000 ) ) ;
#143 = CIRCLE ( 'NONE', #101, 2.100000000000000089 ) ;
#144 = CYLINDRICAL_SURFACE ( 'NONE', #118, 2.100000000000000089 ) ;
#145 = CARTESIAN_POINT ( 'NONE',  ( 4.000000000000000000, 4.898587196589412829E-16, 3.000000000000000000 ) ) ;
#146 = EDGE_CURVE ( 'NONE', #215, #218, #55, .T. ) ;
#147 = PERSON_AND_ORGANIZATION_ROLE ( 'design_owner' ) ;
#148 = APPROVAL_STATUS ( 'not_yet_approved' ) ;
#149 = PERSON_AND_ORGANIZATION ( #168, #42 ) ;
#150 = APPROVAL_DATE_TIME ( #70, #155 ) ;
#151 = AXIS2_PLACEMENT_3D ( 'NONE', #8, #210, #105 ) ;
#152 = COORDINATED_UNIVERSAL_TIME_OFFSET ( 1, 0, .AHEAD. ) ;
#153 = AXIS2_PLACEMENT_3D ( 'NONE', #166, #165, #224 ) ;
#154 = LINE ( 'NONE', #119, #2 ) ;
#155 = APPROVAL ( #15, 'NEURÈENÝ' ) ;
#156 = ORIENTED_EDGE ( 'NONE', *, *, #134, .F. ) ;
#157 = VERTEX_POINT ( 'NONE', #5 ) ;
#158 = ORIENTED_EDGE ( 'NONE', *, *, #72, .F. ) ;
#159 = ORIENTED_EDGE ( 'NONE', *, *, #250, .F. ) ;
#160 = CIRCLE ( 'NONE', #151, 2.100000000000000089 ) ;
#161 = FACE_BOUND ( 'NONE', #74, .T. ) ;
#162 = LINE ( 'NONE', #145, #244 ) ;
#163 = DESIGN_CONTEXT ( 'detailed design', #75, 'design' ) ;
#164 = CARTESIAN_POINT ( 'NONE',  ( 0.000000000000000000, 0.000000000000000000, 3.000000000000000000 ) ) ;
#165 = DIRECTION ( 'NONE',  ( -0.000000000000000000, -0.000000000000000000, -1.000000000000000000 ) ) ;
#166 = CARTESIAN_POINT ( 'NONE',  ( 0.000000000000000000, 0.000000000000000000, 3.000000000000000000 ) ) ;
#167 = PERSON_AND_ORGANIZATION ( #168, #42 ) ;
#168 = PERSON ( 'NEURÈENÝ', 'NEURÈENÝ', 'NEURÈENÝ', ('NEURÈENÝ'), ('NEURÈENÝ'), ('NEURÈENÝ') ) ;
#169 = PERSON_AND_ORGANIZATION ( #168, #42 ) ;
#170 = EDGE_CURVE ( 'NONE', #218, #215, #87, .T. ) ;
#171 = APPROVAL_PERSON_ORGANIZATION ( #149, #186, #131 ) ;
#172 =( NAMED_UNIT ( * ) SI_UNIT ( $, .STERADIAN. ) SOLID_ANGLE_UNIT ( ) );
#173 = COORDINATED_UNIVERSAL_TIME_OFFSET ( 1, 0, .AHEAD. ) ;
#174 = AXIS2_PLACEMENT_3D ( 'NONE', #142, #187, #208 ) ;
#175 = ORIENTED_EDGE ( 'NONE', *, *, #146, .T. ) ;
#176 = AXIS2_PLACEMENT_3D ( 'NONE', #27, #183, #124 ) ;
#177 = EDGE_CURVE ( 'NONE', #59, #135, #96, .T. ) ;
#178 = ORIENTED_EDGE ( 'NONE', *, *, #170, .T. ) ;
#179 = VERTEX_POINT ( 'NONE', #46 ) ;
#180 = EDGE_LOOP ( 'NONE', ( #73, #236 ) ) ;
#181 = AXIS2_PLACEMENT_3D ( 'NONE', #246, #28, #71 ) ;
#182 = VERTEX_POINT ( 'NONE', #204 ) ;
#183 = DIRECTION ( 'NONE',  ( -0.000000000000000000, -0.000000000000000000, -1.000000000000000000 ) ) ;
#184 = UNCERTAINTY_MEASURE_WITH_UNIT (LENGTH_MEASURE( 1.000000000000000082E-05 ), #240, 'distance_accuracy_value', 'NONE');
#185 = CARTESIAN_POINT ( 'NONE',  ( 0.000000000000000000, 0.000000000000000000, 0.000000000000000000 ) ) ;
#186 = APPROVAL ( #148, 'NEURÈENÝ' ) ;
#187 = DIRECTION ( 'NONE',  ( 0.000000000000000000, 0.000000000000000000, 1.000000000000000000 ) ) ;
#188 = DIRECTION ( 'NONE',  ( 1.000000000000000000, 0.000000000000000000, -0.000000000000000000 ) ) ;
#189 = CYLINDRICAL_SURFACE ( 'NONE', #153, 4.000000000000000000 ) ;
#190 = CC_DESIGN_APPROVAL ( #155, ( #198 ) ) ;
#191 = SECURITY_CLASSIFICATION_LEVEL ( 'unclassified' ) ;
#192 = APPROVAL_DATE_TIME ( #112, #242 ) ;
#193 = CIRCLE ( 'NONE', #76, 4.000000000000000000 ) ;
#194 = COORDINATED_UNIVERSAL_TIME_OFFSET ( 1, 0, .AHEAD. ) ;
#195 = APPROVAL_PERSON_ORGANIZATION ( #167, #155, #232 ) ;
#196 = DATE_TIME_ROLE ( 'creation_date' ) ;
#197 = ORIENTED_EDGE ( 'NONE', *, *, #200, .F. ) ;
#198 = SECURITY_CLASSIFICATION ( '', '', #191 ) ;
#199 = CARTESIAN_POINT ( 'NONE',  ( -2.100000000000000089, 0.000000000000000000, 400.0000000000000000 ) ) ;
#200 = EDGE_CURVE ( 'NONE', #182, #157, #160, .T. ) ;
#201 = DIRECTION ( 'NONE',  ( 1.000000000000000000, 0.000000000000000000, 0.000000000000000000 ) ) ;
#202 = AXIS2_PLACEMENT_3D ( 'NONE', #65, #222, #10 ) ;
#203 = ORIENTED_EDGE ( 'NONE', *, *, #247, .T. ) ;
#204 = CARTESIAN_POINT ( 'NONE',  ( 2.100000000000000089, 2.571758278209441957E-16, 400.0000000000000000 ) ) ;
#205 = CARTESIAN_POINT ( 'NONE',  ( 0.000000000000000000, 0.000000000000000000, 400.0000000000000000 ) ) ;
#206 = LOCAL_TIME ( 17, 7, 46.00000000000000000, #125 ) ;
#207 = PRODUCT_DEFINITION_FORMATION_WITH_SPECIFIED_SOURCE ( 'LIBOVOLNÝ', '', #54, .NOT_KNOWN. ) ;
#208 = DIRECTION ( 'NONE',  ( 1.000000000000000000, 0.000000000000000000, 0.000000000000000000 ) ) ;
#209 = ADVANCED_FACE ( 'NONE', ( #161, #88 ), #107, .T. ) ;
#210 = DIRECTION ( 'NONE',  ( 0.000000000000000000, 0.000000000000000000, 1.000000000000000000 ) ) ;
#211 = AXIS2_PLACEMENT_3D ( 'NONE', #164, #241, #43 ) ;
#212 = CALENDAR_DATE ( 2023, 13, 2 ) ;
#213 = COORDINATED_UNIVERSAL_TIME_OFFSET ( 1, 0, .AHEAD. ) ;
#214 = ORIENTED_EDGE ( 'NONE', *, *, #7, .F. ) ;
#215 = VERTEX_POINT ( 'NONE', #123 ) ;
#216 = ADVANCED_FACE ( 'NONE', ( #26 ), #109, .F. ) ;
#217 = ORIENTED_EDGE ( 'NONE', *, *, #200, .T. ) ;
#218 = VERTEX_POINT ( 'NONE', #85 ) ;
#219 = CARTESIAN_POINT ( 'NONE',  ( 4.000000000000000000, 4.898587196589412829E-16, 3.000000000000000000 ) ) ;
#220 = CARTESIAN_POINT ( 'NONE',  ( 0.000000000000000000, 0.000000000000000000, 400.0000000000000000 ) ) ;
#221 = CIRCLE ( 'NONE', #113, 2.100000000000000089 ) ;
#222 = DIRECTION ( 'NONE',  ( 0.000000000000000000, 0.000000000000000000, 1.000000000000000000 ) ) ;
#223 = ADVANCED_FACE ( 'NONE', ( #243 ), #144, .T. ) ;
#224 = DIRECTION ( 'NONE',  ( -1.000000000000000000, 0.000000000000000000, 0.000000000000000000 ) ) ;
#225 = DIRECTION ( 'NONE',  ( -0.000000000000000000, -0.000000000000000000, -1.000000000000000000 ) ) ;
#226 = APPLICATION_CONTEXT ( 'configuration controlled 3d designs of mechanical parts and assemblies' ) ;
#227 = APPROVAL_STATUS ( 'not_yet_approved' ) ;
#228 = ADVANCED_FACE ( 'NONE', ( #140 ), #86, .T. ) ;
#229 = PERSON_AND_ORGANIZATION_ROLE ( 'creator' ) ;
#230 = SHAPE_DEFINITION_REPRESENTATION ( #14, #61 ) ;
#231 = ADVANCED_FACE ( 'NONE', ( #63 ), #189, .T. ) ;
#232 = APPROVAL_ROLE ( '' ) ;
#233 = CARTESIAN_POINT ( 'NONE',  ( 0.000000000000000000, 0.000000000000000000, 3.000000000000000000 ) ) ;
#234 = ORIENTED_EDGE ( 'NONE', *, *, #122, .F. ) ;
#235 = ORIENTED_EDGE ( 'NONE', *, *, #72, .T. ) ;
#236 = ORIENTED_EDGE ( 'NONE', *, *, #7, .T. ) ;
#237 = ADVANCED_FACE ( 'NONE', ( #245 ), #48, .T. ) ;
#238 = DIRECTION ( 'NONE',  ( 0.000000000000000000, 0.000000000000000000, 1.000000000000000000 ) ) ;
#239 = LOCAL_TIME ( 17, 7, 46.00000000000000000, #173 ) ;
#240 =( LENGTH_UNIT ( ) NAMED_UNIT ( * ) SI_UNIT ( .MILLI., .METRE. ) );
#241 = DIRECTION ( 'NONE',  ( 0.000000000000000000, 0.000000000000000000, 1.000000000000000000 ) ) ;
#242 = APPROVAL ( #227, 'NEURÈENÝ' ) ;
#243 = FACE_OUTER_BOUND ( 'NONE', #60, .T. ) ;
#244 = VECTOR ( 'NONE', #225, 1000.000000000000000 ) ;
#245 = FACE_OUTER_BOUND ( 'NONE', #1, .T. ) ;
#246 = CARTESIAN_POINT ( 'NONE',  ( 0.000000000000000000, 0.000000000000000000, 0.000000000000000000 ) ) ;
#247 = EDGE_CURVE ( 'NONE', #135, #218, #162, .T. ) ;
#248 = DATE_TIME_ROLE ( 'classification_date' ) ;
#249 = CALENDAR_DATE ( 2023, 13, 2 ) ;
#250 = EDGE_CURVE ( 'NONE', #59, #215, #139, .T. ) ;
#251 = DATE_AND_TIME ( #92, #253 ) ;
#252 = AXIS2_PLACEMENT_3D ( 'NONE', #120, #37, #116 ) ;
#253 = LOCAL_TIME ( 17, 7, 46.00000000000000000, #194 ) ;
#254 = DIRECTION ( 'NONE',  ( 0.000000000000000000, 0.000000000000000000, 1.000000000000000000 ) ) ;
#255 = EDGE_LOOP ( 'NONE', ( #158, #234, #19, #81 ) ) ;
ENDSEC;
END-ISO-10303-21;
