ISO-10303-21;
HEADER;
FILE_DESCRIPTION (( 'STEP AP203' ),
    '1' );
FILE_NAME ('b0a0.STEP',
    '2023-02-13T14:23:47',
    ( '' ),
    ( '' ),
    'SwSTEP 2.0',
    'SolidWorks 2019',
    '' );
FILE_SCHEMA (( 'CONFIG_CONTROL_DESIGN' ));
ENDSEC;

DATA;
#1 = DATE_AND_TIME ( #155, #82 ) ;
#2 = EDGE_CURVE ( 'NONE', #81, #97, #84, .T. ) ;
#3 = CALENDAR_DATE ( 2023, 13, 2 ) ;
#4 = CARTESIAN_POINT ( 'NONE',  ( 3.750000000000000000, 4.592425496802573972E-16, 500.0000000000000000 ) ) ;
#5 = LOCAL_TIME ( 15, 23, 47.00000000000000000, #222 ) ;
#6 = EDGE_CURVE ( 'NONE', #233, #110, #10, .T. ) ;
#7 = DIRECTION ( 'NONE',  ( 0.000000000000000000, 0.000000000000000000, 1.000000000000000000 ) ) ;
#8 = CARTESIAN_POINT ( 'NONE',  ( -6.000000000000000888, 0.000000000000000000, 0.000000000000000000 ) ) ;
#9 = ORIENTED_EDGE ( 'NONE', *, *, #252, .F. ) ;
#10 = LINE ( 'NONE', #93, #172 ) ;
#11 = VECTOR ( 'NONE', #174, 1000.000000000000000 ) ;
#12 = FACE_OUTER_BOUND ( 'NONE', #143, .T. ) ;
#13 = EDGE_CURVE ( 'NONE', #97, #81, #113, .T. ) ;
#14 = AXIS2_PLACEMENT_3D ( 'NONE', #68, #185, #243 ) ;
#15 = DATE_TIME_ROLE ( 'classification_date' ) ;
#16 = ORGANIZATION ( 'NEURÈENÝ', 'NEURÈENÝ', '' ) ;
#17 = CARTESIAN_POINT ( 'NONE',  ( 0.000000000000000000, 0.000000000000000000, 5.000000000000000000 ) ) ;
#18 = APPROVAL ( #135, 'NEURÈENÝ' ) ;
#19 = EDGE_LOOP ( 'NONE', ( #227, #72 ) ) ;
#20 = DIRECTION ( 'NONE',  ( 0.000000000000000000, 0.000000000000000000, 1.000000000000000000 ) ) ;
#21 = ORIENTED_EDGE ( 'NONE', *, *, #241, .F. ) ;
#22 = CARTESIAN_POINT ( 'NONE',  ( 0.000000000000000000, 0.000000000000000000, 0.000000000000000000 ) ) ;
#23 = LOCAL_TIME ( 15, 23, 47.00000000000000000, #95 ) ;
#24 = AXIS2_PLACEMENT_3D ( 'NONE', #123, #69, #167 ) ;
#25 = CARTESIAN_POINT ( 'NONE',  ( -3.750000000000000000, 0.000000000000000000, 5.000000000000000000 ) ) ;
#26 = CYLINDRICAL_SURFACE ( 'NONE', #200, 3.750000000000000000 ) ;
#27 = CIRCLE ( 'NONE', #190, 6.000000000000000888 ) ;
#28 = CARTESIAN_POINT ( 'NONE',  ( 6.000000000000000888, 7.347880794884120722E-16, 0.000000000000000000 ) ) ;
#29 = APPLICATION_CONTEXT ( 'configuration controlled 3d designs of mechanical parts and assemblies' ) ;
#30 = AXIS2_PLACEMENT_3D ( 'NONE', #229, #201, #166 ) ;
#31 = DIRECTION ( 'NONE',  ( 0.000000000000000000, 0.000000000000000000, 1.000000000000000000 ) ) ;
#32 = PERSON_AND_ORGANIZATION_ROLE ( 'classification_officer' ) ;
#33 = DIRECTION ( 'NONE',  ( 1.000000000000000000, 0.000000000000000000, 0.000000000000000000 ) ) ;
#34 = EDGE_LOOP ( 'NONE', ( #160, #21, #125, #105 ) ) ;
#35 = SECURITY_CLASSIFICATION ( '', '', #70 ) ;
#36 = ORIENTED_EDGE ( 'NONE', *, *, #142, .F. ) ;
#37 = APPROVAL_DATE_TIME ( #75, #18 ) ;
#38 = CIRCLE ( 'NONE', #213, 3.750000000000000000 ) ;
#39 = DIRECTION ( 'NONE',  ( 1.000000000000000000, 0.000000000000000000, 0.000000000000000000 ) ) ;
#40 = APPLICATION_PROTOCOL_DEFINITION ( 'international standard', 'config_control_design', 1994, #29 ) ;
#41 = COORDINATED_UNIVERSAL_TIME_OFFSET ( 1, 0, .AHEAD. ) ;
#42 = CC_DESIGN_DATE_AND_TIME_ASSIGNMENT ( #107, #15, ( #35 ) ) ;
#43 = DIRECTION ( 'NONE',  ( 0.000000000000000000, 0.000000000000000000, 1.000000000000000000 ) ) ;
#44 = DIRECTION ( 'NONE',  ( 0.000000000000000000, 0.000000000000000000, 1.000000000000000000 ) ) ;
#45 = ADVANCED_FACE ( 'NONE', ( #204 ), #87, .F. ) ;
#46 = CARTESIAN_POINT ( 'NONE',  ( 0.000000000000000000, 0.000000000000000000, 500.0000000000000000 ) ) ;
#47 = ORIENTED_EDGE ( 'NONE', *, *, #85, .T. ) ;
#48 = AXIS2_PLACEMENT_3D ( 'NONE', #134, #77, #232 ) ;
#49 = CARTESIAN_POINT ( 'NONE',  ( 0.000000000000000000, 0.000000000000000000, 500.0000000000000000 ) ) ;
#50 = ORIENTED_EDGE ( 'NONE', *, *, #2, .F. ) ;
#51 = ADVANCED_FACE ( 'NONE', ( #242 ), #240, .T. ) ;
#52 = DIRECTION ( 'NONE',  ( 1.000000000000000000, 0.000000000000000000, 0.000000000000000000 ) ) ;
#53 = VERTEX_POINT ( 'NONE', #4 ) ;
#54 = PERSON_AND_ORGANIZATION ( #79, #16 ) ;
#55 = DATE_AND_TIME ( #186, #23 ) ;
#56 = FACE_OUTER_BOUND ( 'NONE', #108, .T. ) ;
#57 = AXIS2_PLACEMENT_3D ( 'NONE', #66, #124, #130 ) ;
#58 = PERSON_AND_ORGANIZATION ( #79, #16 ) ;
#59 =( NAMED_UNIT ( * ) PLANE_ANGLE_UNIT ( ) SI_UNIT ( $, .RADIAN. ) );
#60 = DATE_AND_TIME ( #3, #109 ) ;
#61 = APPROVAL ( #159, 'NEURÈENÝ' ) ;
#62 = DIRECTION ( 'NONE',  ( 1.000000000000000000, 0.000000000000000000, 0.000000000000000000 ) ) ;
#63 = APPROVAL_DATE_TIME ( #55, #154 ) ;
#64 = AXIS2_PLACEMENT_3D ( 'NONE', #118, #43, #62 ) ;
#65 = ORIENTED_EDGE ( 'NONE', *, *, #252, .T. ) ;
#66 = CARTESIAN_POINT ( 'NONE',  ( 0.000000000000000000, 0.000000000000000000, 5.000000000000000000 ) ) ;
#67 = ORIENTED_EDGE ( 'NONE', *, *, #246, .T. ) ;
#68 = CARTESIAN_POINT ( 'NONE',  ( 0.000000000000000000, 0.000000000000000000, 5.000000000000000000 ) ) ;
#69 = DIRECTION ( 'NONE',  ( -0.000000000000000000, -0.000000000000000000, -1.000000000000000000 ) ) ;
#70 = SECURITY_CLASSIFICATION_LEVEL ( 'unclassified' ) ;
#71 = CARTESIAN_POINT ( 'NONE',  ( 0.000000000000000000, 0.000000000000000000, 500.0000000000000000 ) ) ;
#72 = ORIENTED_EDGE ( 'NONE', *, *, #161, .T. ) ;
#73 = APPROVAL_ROLE ( '' ) ;
#74 = CARTESIAN_POINT ( 'NONE',  ( -6.000000000000000888, 0.000000000000000000, 5.000000000000000000 ) ) ;
#75 = DATE_AND_TIME ( #170, #5 ) ;
#76 = DESIGN_CONTEXT ( 'detailed design', #29, 'design' ) ;
#77 = DIRECTION ( 'NONE',  ( -0.000000000000000000, -0.000000000000000000, -1.000000000000000000 ) ) ;
#78 = CC_DESIGN_PERSON_AND_ORGANIZATION_ASSIGNMENT ( #191, #96, ( #153 ) ) ;
#79 = PERSON ( 'NEURÈENÝ', 'NEURÈENÝ', 'NEURÈENÝ', ('NEURÈENÝ'), ('NEURÈENÝ'), ('NEURÈENÝ') ) ;
#80 = CARTESIAN_POINT ( 'NONE',  ( 3.750000000000000000, 4.592425496802573972E-16, 5.000000000000000000 ) ) ;
#81 = VERTEX_POINT ( 'NONE', #8 ) ;
#82 = LOCAL_TIME ( 15, 23, 47.00000000000000000, #41 ) ;
#83 = DIRECTION ( 'NONE',  ( 0.000000000000000000, 0.000000000000000000, 1.000000000000000000 ) ) ;
#84 = CIRCLE ( 'NONE', #30, 6.000000000000000888 ) ;
#85 = EDGE_CURVE ( 'NONE', #53, #230, #145, .T. ) ;
#86 = CC_DESIGN_SECURITY_CLASSIFICATION ( #35, ( #192 ) ) ;
#87 = PLANE ( 'NONE',  #165 ) ;
#88 = ORIENTED_EDGE ( 'NONE', *, *, #6, .F. ) ;
#89 = CARTESIAN_POINT ( 'NONE',  ( 0.000000000000000000, 0.000000000000000000, 0.000000000000000000 ) ) ;
#90 = PRODUCT_DEFINITION ( 'NEZNÁMÝ', '', #192, #76 ) ;
#91 = ORIENTED_EDGE ( 'NONE', *, *, #151, .F. ) ;
#92 = SHAPE_DEFINITION_REPRESENTATION ( #117, #254 ) ;
#93 = CARTESIAN_POINT ( 'NONE',  ( -3.750000000000000000, 0.000000000000000000, 500.0000000000000000 ) ) ;
#94 = DIRECTION ( 'NONE',  ( -0.000000000000000000, -0.000000000000000000, -1.000000000000000000 ) ) ;
#95 = COORDINATED_UNIVERSAL_TIME_OFFSET ( 1, 0, .AHEAD. ) ;
#96 = PERSON_AND_ORGANIZATION_ROLE ( 'design_owner' ) ;
#97 = VERTEX_POINT ( 'NONE', #28 ) ;
#98 = CARTESIAN_POINT ( 'NONE',  ( 6.000000000000000888, 7.347880794884120722E-16, 5.000000000000000000 ) ) ;
#99 = DIRECTION ( 'NONE',  ( 1.000000000000000000, 0.000000000000000000, 0.000000000000000000 ) ) ;
#100 = ADVANCED_FACE ( 'NONE', ( #12 ), #226, .T. ) ;
#101 = CARTESIAN_POINT ( 'NONE',  ( 0.000000000000000000, 0.000000000000000000, 5.000000000000000000 ) ) ;
#102 =( GEOMETRIC_REPRESENTATION_CONTEXT ( 3 ) GLOBAL_UNCERTAINTY_ASSIGNED_CONTEXT ( ( #114 ) ) GLOBAL_UNIT_ASSIGNED_CONTEXT ( ( #253, #59, #237 ) ) REPRESENTATION_CONTEXT ( 'NONE', 'WORKASPACE' ) );
#103 = DIRECTION ( 'NONE',  ( 0.000000000000000000, 0.000000000000000000, 1.000000000000000000 ) ) ;
#104 = FACE_OUTER_BOUND ( 'NONE', #129, .T. ) ;
#105 = ORIENTED_EDGE ( 'NONE', *, *, #112, .T. ) ;
#106 = DIRECTION ( 'NONE',  ( -0.000000000000000000, -0.000000000000000000, -1.000000000000000000 ) ) ;
#107 = DATE_AND_TIME ( #245, #177 ) ;
#108 = EDGE_LOOP ( 'NONE', ( #219, #67, #144, #36 ) ) ;
#109 = LOCAL_TIME ( 15, 23, 47.00000000000000000, #178 ) ;
#110 = VERTEX_POINT ( 'NONE', #25 ) ;
#111 = FACE_BOUND ( 'NONE', #182, .T. ) ;
#112 = EDGE_CURVE ( 'NONE', #110, #230, #228, .T. ) ;
#113 = CIRCLE ( 'NONE', #149, 6.000000000000000888 ) ;
#114 = UNCERTAINTY_MEASURE_WITH_UNIT (LENGTH_MEASURE( 1.000000000000000082E-05 ), #253, 'distance_accuracy_value', 'NONE');
#115 = DIRECTION ( 'NONE',  ( 1.000000000000000000, 0.000000000000000000, 0.000000000000000000 ) ) ;
#116 = CC_DESIGN_PERSON_AND_ORGANIZATION_ASSIGNMENT ( #210, #150, ( #192 ) ) ;
#117 = PRODUCT_DEFINITION_SHAPE ( 'NONE', 'NONE',  #90 ) ;
#118 = CARTESIAN_POINT ( 'NONE',  ( 0.000000000000000000, 0.000000000000000000, 5.000000000000000000 ) ) ;
#119 = DIRECTION ( 'NONE',  ( 1.000000000000000000, 0.000000000000000000, -0.000000000000000000 ) ) ;
#120 = APPROVAL_ROLE ( '' ) ;
#121 = FACE_OUTER_BOUND ( 'NONE', #137, .T. ) ;
#122 = ORIENTED_EDGE ( 'NONE', *, *, #2, .T. ) ;
#123 = CARTESIAN_POINT ( 'NONE',  ( 0.000000000000000000, 0.000000000000000000, 500.0000000000000000 ) ) ;
#124 = DIRECTION ( 'NONE',  ( 0.000000000000000000, 0.000000000000000000, 1.000000000000000000 ) ) ;
#125 = ORIENTED_EDGE ( 'NONE', *, *, #6, .T. ) ;
#126 = APPROVAL_STATUS ( 'not_yet_approved' ) ;
#127 = DIRECTION ( 'NONE',  ( -0.000000000000000000, -0.000000000000000000, -1.000000000000000000 ) ) ;
#128 = VECTOR ( 'NONE', #94, 1000.000000000000000 ) ;
#129 = EDGE_LOOP ( 'NONE', ( #91, #47, #65, #88 ) ) ;
#130 = DIRECTION ( 'NONE',  ( 1.000000000000000000, 0.000000000000000000, 0.000000000000000000 ) ) ;
#131 = PERSON_AND_ORGANIZATION ( #79, #16 ) ;
#132 = FACE_OUTER_BOUND ( 'NONE', #19, .T. ) ;
#133 = CC_DESIGN_APPROVAL ( #18, ( #192 ) ) ;
#134 = CARTESIAN_POINT ( 'NONE',  ( 0.000000000000000000, 0.000000000000000000, 5.000000000000000000 ) ) ;
#135 = APPROVAL_STATUS ( 'not_yet_approved' ) ;
#136 = CARTESIAN_POINT ( 'NONE',  ( 0.000000000000000000, 0.000000000000000000, 500.0000000000000000 ) ) ;
#137 = EDGE_LOOP ( 'NONE', ( #199, #184 ) ) ;
#138 = CIRCLE ( 'NONE', #64, 3.750000000000000000 ) ;
#139 = DIRECTION ( 'NONE',  ( 0.000000000000000000, 0.000000000000000000, 1.000000000000000000 ) ) ;
#140 = APPROVAL_DATE_TIME ( #60, #61 ) ;
#141 = DIRECTION ( 'NONE',  ( -0.000000000000000000, -0.000000000000000000, -1.000000000000000000 ) ) ;
#142 = EDGE_CURVE ( 'NONE', #205, #81, #168, .T. ) ;
#143 = EDGE_LOOP ( 'NONE', ( #244, #247, #183, #122 ) ) ;
#144 = ORIENTED_EDGE ( 'NONE', *, *, #13, .T. ) ;
#145 = LINE ( 'NONE', #180, #202 ) ;
#146 = VERTEX_POINT ( 'NONE', #239 ) ;
#147 = APPROVAL_ROLE ( '' ) ;
#148 = CARTESIAN_POINT ( 'NONE',  ( -6.000000000000000888, 0.000000000000000000, 5.000000000000000000 ) ) ;
#149 = AXIS2_PLACEMENT_3D ( 'NONE', #89, #7, #33 ) ;
#150 = PERSON_AND_ORGANIZATION_ROLE ( 'design_supplier' ) ;
#151 = EDGE_CURVE ( 'NONE', #53, #233, #38, .T. ) ;
#152 = CC_DESIGN_APPROVAL ( #154, ( #35 ) ) ;
#153 = PRODUCT ( 'b0a0', 'b0a0', '', ( #173 ) ) ;
#154 = APPROVAL ( #126, 'NEURÈENÝ' ) ;
#155 = CALENDAR_DATE ( 2023, 13, 2 ) ;
#156 = CIRCLE ( 'NONE', #57, 6.000000000000000888 ) ;
#157 = APPLICATION_CONTEXT ( 'configuration controlled 3d designs of mechanical parts and assemblies' ) ;
#158 = APPROVAL_PERSON_ORGANIZATION ( #248, #154, #147 ) ;
#159 = APPROVAL_STATUS ( 'not_yet_approved' ) ;
#160 = ORIENTED_EDGE ( 'NONE', *, *, #85, .F. ) ;
#161 = EDGE_CURVE ( 'NONE', #146, #205, #156, .T. ) ;
#162 = AXIS2_PLACEMENT_3D ( 'NONE', #22, #83, #115 ) ;
#163 = DIRECTION ( 'NONE',  ( -1.000000000000000000, 0.000000000000000000, 0.000000000000000000 ) ) ;
#164 = AXIS2_PLACEMENT_3D ( 'NONE', #46, #103, #181 ) ;
#165 = AXIS2_PLACEMENT_3D ( 'NONE', #187, #31, #198 ) ;
#166 = DIRECTION ( 'NONE',  ( 1.000000000000000000, 0.000000000000000000, 0.000000000000000000 ) ) ;
#167 = DIRECTION ( 'NONE',  ( -1.000000000000000000, 0.000000000000000000, 0.000000000000000000 ) ) ;
#168 = LINE ( 'NONE', #74, #128 ) ;
#169 = AXIS2_PLACEMENT_3D ( 'NONE', #101, #127, #163 ) ;
#170 = CALENDAR_DATE ( 2023, 13, 2 ) ;
#171 = ADVANCED_FACE ( 'NONE', ( #104 ), #26, .T. ) ;
#172 = VECTOR ( 'NONE', #208, 1000.000000000000000 ) ;
#173 = MECHANICAL_CONTEXT ( 'NONE', #157, 'mechanical' ) ;
#174 = DIRECTION ( 'NONE',  ( -0.000000000000000000, -0.000000000000000000, -1.000000000000000000 ) ) ;
#175 = PERSON_AND_ORGANIZATION ( #79, #16 ) ;
#176 = CC_DESIGN_PERSON_AND_ORGANIZATION_ASSIGNMENT ( #131, #249, ( #192 ) ) ;
#177 = LOCAL_TIME ( 15, 23, 47.00000000000000000, #207 ) ;
#178 = COORDINATED_UNIVERSAL_TIME_OFFSET ( 1, 0, .AHEAD. ) ;
#179 = CC_DESIGN_PERSON_AND_ORGANIZATION_ASSIGNMENT ( #54, #32, ( #35 ) ) ;
#180 = CARTESIAN_POINT ( 'NONE',  ( 3.750000000000000000, 4.592425496802573972E-16, 500.0000000000000000 ) ) ;
#181 = DIRECTION ( 'NONE',  ( 1.000000000000000000, 0.000000000000000000, -0.000000000000000000 ) ) ;
#182 = EDGE_LOOP ( 'NONE', ( #225, #9 ) ) ;
#183 = ORIENTED_EDGE ( 'NONE', *, *, #142, .T. ) ;
#184 = ORIENTED_EDGE ( 'NONE', *, *, #151, .T. ) ;
#185 = DIRECTION ( 'NONE',  ( 0.000000000000000000, 0.000000000000000000, 1.000000000000000000 ) ) ;
#186 = CALENDAR_DATE ( 2023, 13, 2 ) ;
#187 = CARTESIAN_POINT ( 'NONE',  ( 0.000000000000000000, 0.000000000000000000, 0.000000000000000000 ) ) ;
#188 = PLANE ( 'NONE',  #217 ) ;
#189 = CIRCLE ( 'NONE', #195, 3.750000000000000000 ) ;
#190 = AXIS2_PLACEMENT_3D ( 'NONE', #17, #234, #39 ) ;
#191 = PERSON_AND_ORGANIZATION ( #79, #16 ) ;
#192 = PRODUCT_DEFINITION_FORMATION_WITH_SPECIFIED_SOURCE ( 'LIBOVOLNÝ', '', #153, .NOT_KNOWN. ) ;
#193 = ADVANCED_FACE ( 'NONE', ( #121 ), #223, .T. ) ;
#194 = LINE ( 'NONE', #98, #11 ) ;
#195 = AXIS2_PLACEMENT_3D ( 'NONE', #136, #20, #99 ) ;
#196 = APPLICATION_PROTOCOL_DEFINITION ( 'international standard', 'config_control_design', 1994, #157 ) ;
#197 = PRODUCT_RELATED_PRODUCT_CATEGORY ( 'detail', '', ( #153 ) ) ;
#198 = DIRECTION ( 'NONE',  ( 1.000000000000000000, 0.000000000000000000, -0.000000000000000000 ) ) ;
#199 = ORIENTED_EDGE ( 'NONE', *, *, #241, .T. ) ;
#200 = AXIS2_PLACEMENT_3D ( 'NONE', #49, #141, #224 ) ;
#201 = DIRECTION ( 'NONE',  ( 0.000000000000000000, 0.000000000000000000, 1.000000000000000000 ) ) ;
#202 = VECTOR ( 'NONE', #106, 1000.000000000000000 ) ;
#203 = CC_DESIGN_PERSON_AND_ORGANIZATION_ASSIGNMENT ( #221, #216, ( #90 ) ) ;
#204 = FACE_OUTER_BOUND ( 'NONE', #238, .T. ) ;
#205 = VERTEX_POINT ( 'NONE', #148 ) ;
#206 = MANIFOLD_SOLID_BREP ( 'Pøidat vysunutím3', #220 ) ;
#207 = COORDINATED_UNIVERSAL_TIME_OFFSET ( 1, 0, .AHEAD. ) ;
#208 = DIRECTION ( 'NONE',  ( -0.000000000000000000, -0.000000000000000000, -1.000000000000000000 ) ) ;
#209 = ORIENTED_EDGE ( 'NONE', *, *, #13, .F. ) ;
#210 = PERSON_AND_ORGANIZATION ( #79, #16 ) ;
#211 = CARTESIAN_POINT ( 'NONE',  ( -3.750000000000000000, 0.000000000000000000, 500.0000000000000000 ) ) ;
#212 = CARTESIAN_POINT ( 'NONE',  ( 0.000000000000000000, 0.000000000000000000, 5.000000000000000000 ) ) ;
#213 = AXIS2_PLACEMENT_3D ( 'NONE', #71, #44, #52 ) ;
#214 = CC_DESIGN_APPROVAL ( #61, ( #90 ) ) ;
#215 = ADVANCED_FACE ( 'NONE', ( #56 ), #250, .T. ) ;
#216 = PERSON_AND_ORGANIZATION_ROLE ( 'creator' ) ;
#217 = AXIS2_PLACEMENT_3D ( 'NONE', #212, #139, #119 ) ;
#218 = EDGE_CURVE ( 'NONE', #205, #146, #27, .T. ) ;
#219 = ORIENTED_EDGE ( 'NONE', *, *, #161, .F. ) ;
#220 = CLOSED_SHELL ( 'NONE', ( #171, #215, #100, #235, #45, #51, #193 ) ) ;
#221 = PERSON_AND_ORGANIZATION ( #79, #16 ) ;
#222 = COORDINATED_UNIVERSAL_TIME_OFFSET ( 1, 0, .AHEAD. ) ;
#223 = PLANE ( 'NONE',  #164 ) ;
#224 = DIRECTION ( 'NONE',  ( -1.000000000000000000, 0.000000000000000000, 0.000000000000000000 ) ) ;
#225 = ORIENTED_EDGE ( 'NONE', *, *, #112, .F. ) ;
#226 = CYLINDRICAL_SURFACE ( 'NONE', #169, 6.000000000000000888 ) ;
#227 = ORIENTED_EDGE ( 'NONE', *, *, #218, .T. ) ;
#228 = CIRCLE ( 'NONE', #14, 3.750000000000000000 ) ;
#229 = CARTESIAN_POINT ( 'NONE',  ( 0.000000000000000000, 0.000000000000000000, 0.000000000000000000 ) ) ;
#230 = VERTEX_POINT ( 'NONE', #80 ) ;
#231 = CC_DESIGN_DATE_AND_TIME_ASSIGNMENT ( #1, #236, ( #90 ) ) ;
#232 = DIRECTION ( 'NONE',  ( -1.000000000000000000, 0.000000000000000000, 0.000000000000000000 ) ) ;
#233 = VERTEX_POINT ( 'NONE', #211 ) ;
#234 = DIRECTION ( 'NONE',  ( 0.000000000000000000, 0.000000000000000000, 1.000000000000000000 ) ) ;
#235 = ADVANCED_FACE ( 'NONE', ( #111, #132 ), #188, .T. ) ;
#236 = DATE_TIME_ROLE ( 'creation_date' ) ;
#237 =( NAMED_UNIT ( * ) SI_UNIT ( $, .STERADIAN. ) SOLID_ANGLE_UNIT ( ) );
#238 = EDGE_LOOP ( 'NONE', ( #50, #209 ) ) ;
#239 = CARTESIAN_POINT ( 'NONE',  ( 6.000000000000000888, 7.347880794884120722E-16, 5.000000000000000000 ) ) ;
#240 = CYLINDRICAL_SURFACE ( 'NONE', #24, 3.750000000000000000 ) ;
#241 = EDGE_CURVE ( 'NONE', #233, #53, #189, .T. ) ;
#242 = FACE_OUTER_BOUND ( 'NONE', #34, .T. ) ;
#243 = DIRECTION ( 'NONE',  ( 1.000000000000000000, 0.000000000000000000, 0.000000000000000000 ) ) ;
#244 = ORIENTED_EDGE ( 'NONE', *, *, #246, .F. ) ;
#245 = CALENDAR_DATE ( 2023, 13, 2 ) ;
#246 = EDGE_CURVE ( 'NONE', #146, #97, #194, .T. ) ;
#247 = ORIENTED_EDGE ( 'NONE', *, *, #218, .F. ) ;
#248 = PERSON_AND_ORGANIZATION ( #79, #16 ) ;
#249 = PERSON_AND_ORGANIZATION_ROLE ( 'creator' ) ;
#250 = CYLINDRICAL_SURFACE ( 'NONE', #48, 6.000000000000000888 ) ;
#251 = APPROVAL_PERSON_ORGANIZATION ( #58, #18, #73 ) ;
#252 = EDGE_CURVE ( 'NONE', #230, #110, #138, .T. ) ;
#253 =( LENGTH_UNIT ( ) NAMED_UNIT ( * ) SI_UNIT ( .MILLI., .METRE. ) );
#254 = ADVANCED_BREP_SHAPE_REPRESENTATION ( 'b0a0', ( #206, #162 ), #102 ) ;
#255 = APPROVAL_PERSON_ORGANIZATION ( #175, #61, #120 ) ;
ENDSEC;
END-ISO-10303-21;
