ISO-10303-21;
HEADER;
FILE_DESCRIPTION (( 'STEP AP203' ),
    '1' );
FILE_NAME ('faee.STEP',
    '2023-02-13T09:49:04',
    ( '' ),
    ( '' ),
    'SwSTEP 2.0',
    'SolidWorks 2019',
    '' );
FILE_SCHEMA (( 'CONFIG_CONTROL_DESIGN' ));
ENDSEC;

DATA;
#1 = CIRCLE ( 'NONE', #191, 7.750000000000000000 ) ;
#2 =( LENGTH_UNIT ( ) NAMED_UNIT ( * ) SI_UNIT ( .MILLI., .METRE. ) );
#3 = EDGE_LOOP ( 'NONE', ( #20, #115 ) ) ;
#4 = DIRECTION ( 'NONE',  ( 0.000000000000000000, 0.000000000000000000, 1.000000000000000000 ) ) ;
#5 = EDGE_CURVE ( 'NONE', #199, #255, #6, .T. ) ;
#6 = LINE ( 'NONE', #206, #76 ) ;
#7 = DIRECTION ( 'NONE',  ( 1.000000000000000000, 0.000000000000000000, -0.000000000000000000 ) ) ;
#8 = VERTEX_POINT ( 'NONE', #203 ) ;
#9 = AXIS2_PLACEMENT_3D ( 'NONE', #181, #177, #10 ) ;
#10 = DIRECTION ( 'NONE',  ( 1.000000000000000000, 0.000000000000000000, 0.000000000000000000 ) ) ;
#11 = CARTESIAN_POINT ( 'NONE',  ( 0.000000000000000000, 0.000000000000000000, 125.0000000000000000 ) ) ;
#12 = COORDINATED_UNIVERSAL_TIME_OFFSET ( 1, 0, .AHEAD. ) ;
#13 = DIRECTION ( 'NONE',  ( -0.000000000000000000, -0.000000000000000000, -1.000000000000000000 ) ) ;
#14 = APPROVAL_ROLE ( '' ) ;
#15 = DIRECTION ( 'NONE',  ( 0.000000000000000000, 0.000000000000000000, 1.000000000000000000 ) ) ;
#16 = CARTESIAN_POINT ( 'NONE',  ( 0.000000000000000000, 0.000000000000000000, 7.000000000000000000 ) ) ;
#17 = EDGE_LOOP ( 'NONE', ( #69, #109, #86, #146 ) ) ;
#18 = ADVANCED_FACE ( 'NONE', ( #98 ), #116, .T. ) ;
#19 = CARTESIAN_POINT ( 'NONE',  ( 0.000000000000000000, 0.000000000000000000, 125.0000000000000000 ) ) ;
#20 = ORIENTED_EDGE ( 'NONE', *, *, #100, .T. ) ;
#21 = LOCAL_TIME ( 10, 49, 4.000000000000000000, #12 ) ;
#22 = DIRECTION ( 'NONE',  ( -0.000000000000000000, -0.000000000000000000, -1.000000000000000000 ) ) ;
#23 = ORIENTED_EDGE ( 'NONE', *, *, #105, .F. ) ;
#24 = FACE_OUTER_BOUND ( 'NONE', #3, .T. ) ;
#25 = DIRECTION ( 'NONE',  ( -1.000000000000000000, 0.000000000000000000, 0.000000000000000000 ) ) ;
#26 = PLANE ( 'NONE',  #195 ) ;
#27 = DIRECTION ( 'NONE',  ( 0.000000000000000000, 0.000000000000000000, 1.000000000000000000 ) ) ;
#28 = APPROVAL_STATUS ( 'not_yet_approved' ) ;
#29 = PERSON_AND_ORGANIZATION_ROLE ( 'classification_officer' ) ;
#30 = APPLICATION_PROTOCOL_DEFINITION ( 'international standard', 'config_control_design', 1994, #232 ) ;
#31 = ADVANCED_FACE ( 'NONE', ( #137 ), #221, .T. ) ;
#32 = AXIS2_PLACEMENT_3D ( 'NONE', #11, #71, #118 ) ;
#33 = DIRECTION ( 'NONE',  ( -1.000000000000000000, 0.000000000000000000, 0.000000000000000000 ) ) ;
#34 = DIRECTION ( 'NONE',  ( 0.000000000000000000, 0.000000000000000000, 1.000000000000000000 ) ) ;
#35 = ORIENTED_EDGE ( 'NONE', *, *, #167, .F. ) ;
#36 = AXIS2_PLACEMENT_3D ( 'NONE', #161, #247, #141 ) ;
#37 = PRODUCT_RELATED_PRODUCT_CATEGORY ( 'detail', '', ( #46 ) ) ;
#38 = CARTESIAN_POINT ( 'NONE',  ( 0.000000000000000000, 0.000000000000000000, 7.000000000000000000 ) ) ;
#39 = CARTESIAN_POINT ( 'NONE',  ( -7.750000000000000000, 0.000000000000000000, 7.000000000000000000 ) ) ;
#40 = CIRCLE ( 'NONE', #162, 11.00000000000000000 ) ;
#41 = CARTESIAN_POINT ( 'NONE',  ( 0.000000000000000000, 0.000000000000000000, 7.000000000000000000 ) ) ;
#42 = COORDINATED_UNIVERSAL_TIME_OFFSET ( 1, 0, .AHEAD. ) ;
#43 = DIRECTION ( 'NONE',  ( -0.000000000000000000, -0.000000000000000000, -1.000000000000000000 ) ) ;
#44 = PERSON_AND_ORGANIZATION_ROLE ( 'creator' ) ;
#45 = COORDINATED_UNIVERSAL_TIME_OFFSET ( 1, 0, .AHEAD. ) ;
#46 = PRODUCT ( 'faee', 'faee', '', ( #57 ) ) ;
#47 = VERTEX_POINT ( 'NONE', #94 ) ;
#48 = CARTESIAN_POINT ( 'NONE',  ( 0.000000000000000000, 0.000000000000000000, 125.0000000000000000 ) ) ;
#49 = VERTEX_POINT ( 'NONE', #39 ) ;
#50 = DIRECTION ( 'NONE',  ( 1.000000000000000000, 0.000000000000000000, 0.000000000000000000 ) ) ;
#51 = DIRECTION ( 'NONE',  ( -0.000000000000000000, -0.000000000000000000, -1.000000000000000000 ) ) ;
#52 = CARTESIAN_POINT ( 'NONE',  ( -7.750000000000000000, 0.000000000000000000, 125.0000000000000000 ) ) ;
#53 = LINE ( 'NONE', #139, #143 ) ;
#54 = PERSON_AND_ORGANIZATION ( #230, #127 ) ;
#55 = DIRECTION ( 'NONE',  ( -1.000000000000000000, 0.000000000000000000, 0.000000000000000000 ) ) ;
#56 = EDGE_CURVE ( 'NONE', #199, #196, #40, .T. ) ;
#57 = MECHANICAL_CONTEXT ( 'NONE', #101, 'mechanical' ) ;
#58 = CIRCLE ( 'NONE', #36, 7.750000000000000000 ) ;
#59 = CIRCLE ( 'NONE', #212, 11.00000000000000000 ) ;
#60 = LOCAL_TIME ( 10, 49, 4.000000000000000000, #78 ) ;
#61 = CLOSED_SHELL ( 'NONE', ( #73, #18, #31, #169, #95, #233, #148 ) ) ;
#62 = LINE ( 'NONE', #147, #88 ) ;
#63 = EDGE_LOOP ( 'NONE', ( #216, #201, #111, #157 ) ) ;
#64 = PRODUCT_DEFINITION ( 'NEZNÁMÝ', '', #180, #149 ) ;
#65 = DIRECTION ( 'NONE',  ( 0.000000000000000000, 0.000000000000000000, 1.000000000000000000 ) ) ;
#66 = EDGE_LOOP ( 'NONE', ( #23, #175 ) ) ;
#67 = DIRECTION ( 'NONE',  ( 0.000000000000000000, 0.000000000000000000, 1.000000000000000000 ) ) ;
#68 = AXIS2_PLACEMENT_3D ( 'NONE', #19, #194, #50 ) ;
#69 = ORIENTED_EDGE ( 'NONE', *, *, #226, .F. ) ;
#70 = DIRECTION ( 'NONE',  ( 0.000000000000000000, 0.000000000000000000, 1.000000000000000000 ) ) ;
#71 = DIRECTION ( 'NONE',  ( -0.000000000000000000, -0.000000000000000000, -1.000000000000000000 ) ) ;
#72 = APPROVAL_DATE_TIME ( #225, #176 ) ;
#73 = ADVANCED_FACE ( 'NONE', ( #185 ), #120, .T. ) ;
#74 = DIRECTION ( 'NONE',  ( 1.000000000000000000, 0.000000000000000000, -0.000000000000000000 ) ) ;
#75 = CALENDAR_DATE ( 2023, 13, 2 ) ;
#76 = VECTOR ( 'NONE', #51, 1000.000000000000000 ) ;
#77 = DIRECTION ( 'NONE',  ( 0.000000000000000000, 0.000000000000000000, 1.000000000000000000 ) ) ;
#78 = COORDINATED_UNIVERSAL_TIME_OFFSET ( 1, 0, .AHEAD. ) ;
#79 = CALENDAR_DATE ( 2023, 13, 2 ) ;
#80 = CIRCLE ( 'NONE', #68, 7.750000000000000000 ) ;
#81 = CC_DESIGN_APPROVAL ( #112, ( #253 ) ) ;
#82 = CC_DESIGN_APPROVAL ( #176, ( #64 ) ) ;
#83 = EDGE_CURVE ( 'NONE', #84, #238, #53, .T. ) ;
#84 = VERTEX_POINT ( 'NONE', #188 ) ;
#85 = CARTESIAN_POINT ( 'NONE',  ( 11.00000000000000000, 1.347111479062088405E-15, 7.000000000000000000 ) ) ;
#86 = ORIENTED_EDGE ( 'NONE', *, *, #121, .T. ) ;
#87 =( NAMED_UNIT ( * ) PLANE_ANGLE_UNIT ( ) SI_UNIT ( $, .RADIAN. ) );
#88 = VECTOR ( 'NONE', #235, 1000.000000000000000 ) ;
#89 = ORIENTED_EDGE ( 'NONE', *, *, #126, .F. ) ;
#90 = ORIENTED_EDGE ( 'NONE', *, *, #100, .F. ) ;
#91 = LINE ( 'NONE', #52, #204 ) ;
#92 = ORIENTED_EDGE ( 'NONE', *, *, #56, .T. ) ;
#93 =( GEOMETRIC_REPRESENTATION_CONTEXT ( 3 ) GLOBAL_UNCERTAINTY_ASSIGNED_CONTEXT ( ( #132 ) ) GLOBAL_UNIT_ASSIGNED_CONTEXT ( ( #2, #87, #113 ) ) REPRESENTATION_CONTEXT ( 'NONE', 'WORKASPACE' ) );
#94 = CARTESIAN_POINT ( 'NONE',  ( -11.00000000000000000, 0.000000000000000000, 0.000000000000000000 ) ) ;
#95 = ADVANCED_FACE ( 'NONE', ( #205 ), #26, .F. ) ;
#96 = APPROVAL_STATUS ( 'not_yet_approved' ) ;
#97 = CARTESIAN_POINT ( 'NONE',  ( 0.000000000000000000, 0.000000000000000000, 0.000000000000000000 ) ) ;
#98 = FACE_OUTER_BOUND ( 'NONE', #63, .T. ) ;
#99 = PERSON_AND_ORGANIZATION_ROLE ( 'creator' ) ;
#100 = EDGE_CURVE ( 'NONE', #8, #84, #58, .T. ) ;
#101 = APPLICATION_CONTEXT ( 'configuration controlled 3d designs of mechanical parts and assemblies' ) ;
#102 = DATE_TIME_ROLE ( 'creation_date' ) ;
#103 = PERSON_AND_ORGANIZATION_ROLE ( 'design_supplier' ) ;
#104 = AXIS2_PLACEMENT_3D ( 'NONE', #158, #4, #200 ) ;
#105 = EDGE_CURVE ( 'NONE', #47, #255, #59, .T. ) ;
#106 = AXIS2_PLACEMENT_3D ( 'NONE', #159, #43, #25 ) ;
#107 = ORIENTED_EDGE ( 'NONE', *, *, #155, .T. ) ;
#108 = DIRECTION ( 'NONE',  ( 1.000000000000000000, 0.000000000000000000, 0.000000000000000000 ) ) ;
#109 = ORIENTED_EDGE ( 'NONE', *, *, #83, .T. ) ;
#110 = DIRECTION ( 'NONE',  ( 1.000000000000000000, 0.000000000000000000, 0.000000000000000000 ) ) ;
#111 = ORIENTED_EDGE ( 'NONE', *, *, #136, .T. ) ;
#112 = APPROVAL ( #28, 'NEURÈENÝ' ) ;
#113 =( NAMED_UNIT ( * ) SI_UNIT ( $, .STERADIAN. ) SOLID_ANGLE_UNIT ( ) );
#114 = CIRCLE ( 'NONE', #248, 11.00000000000000000 ) ;
#115 = ORIENTED_EDGE ( 'NONE', *, *, #226, .T. ) ;
#116 = CYLINDRICAL_SURFACE ( 'NONE', #106, 11.00000000000000000 ) ;
#117 = APPROVAL_PERSON_ORGANIZATION ( #249, #176, #184 ) ;
#118 = DIRECTION ( 'NONE',  ( -1.000000000000000000, 0.000000000000000000, 0.000000000000000000 ) ) ;
#119 = APPROVAL_ROLE ( '' ) ;
#120 = CYLINDRICAL_SURFACE ( 'NONE', #32, 7.750000000000000000 ) ;
#121 = EDGE_CURVE ( 'NONE', #238, #49, #222, .T. ) ;
#122 = DATE_AND_TIME ( #79, #209 ) ;
#123 = PERSON_AND_ORGANIZATION ( #230, #127 ) ;
#124 = APPROVAL ( #186, 'NEURÈENÝ' ) ;
#125 = CIRCLE ( 'NONE', #210, 11.00000000000000000 ) ;
#126 = EDGE_CURVE ( 'NONE', #49, #238, #1, .T. ) ;
#127 = ORGANIZATION ( 'NEURÈENÝ', 'NEURÈENÝ', '' ) ;
#128 = EDGE_LOOP ( 'NONE', ( #89, #151 ) ) ;
#129 = EDGE_LOOP ( 'NONE', ( #172, #90, #107, #240 ) ) ;
#130 = CC_DESIGN_PERSON_AND_ORGANIZATION_ASSIGNMENT ( #54, #29, ( #253 ) ) ;
#131 = FACE_BOUND ( 'NONE', #128, .T. ) ;
#132 = UNCERTAINTY_MEASURE_WITH_UNIT (LENGTH_MEASURE( 1.000000000000000082E-05 ), #2, 'distance_accuracy_value', 'NONE');
#133 = CARTESIAN_POINT ( 'NONE',  ( 0.000000000000000000, 0.000000000000000000, 125.0000000000000000 ) ) ;
#134 = ORIENTED_EDGE ( 'NONE', *, *, #5, .F. ) ;
#135 = CYLINDRICAL_SURFACE ( 'NONE', #170, 7.750000000000000000 ) ;
#136 = EDGE_CURVE ( 'NONE', #255, #47, #125, .T. ) ;
#137 = FACE_OUTER_BOUND ( 'NONE', #236, .T. ) ;
#138 = DIRECTION ( 'NONE',  ( 1.000000000000000000, 0.000000000000000000, 0.000000000000000000 ) ) ;
#139 = CARTESIAN_POINT ( 'NONE',  ( 7.750000000000000000, 9.491012693391987787E-16, 125.0000000000000000 ) ) ;
#140 = PERSON_AND_ORGANIZATION ( #230, #127 ) ;
#141 = DIRECTION ( 'NONE',  ( 1.000000000000000000, 0.000000000000000000, 0.000000000000000000 ) ) ;
#142 = PERSON_AND_ORGANIZATION ( #230, #127 ) ;
#143 = VECTOR ( 'NONE', #13, 1000.000000000000000 ) ;
#144 = EDGE_CURVE ( 'NONE', #196, #47, #62, .T. ) ;
#145 = APPROVAL_PERSON_ORGANIZATION ( #140, #124, #14 ) ;
#146 = ORIENTED_EDGE ( 'NONE', *, *, #155, .F. ) ;
#147 = CARTESIAN_POINT ( 'NONE',  ( -11.00000000000000000, 0.000000000000000000, 7.000000000000000000 ) ) ;
#148 = ADVANCED_FACE ( 'NONE', ( #24 ), #174, .T. ) ;
#149 = DESIGN_CONTEXT ( 'detailed design', #232, 'design' ) ;
#150 = PLANE ( 'NONE',  #168 ) ;
#151 = ORIENTED_EDGE ( 'NONE', *, *, #121, .F. ) ;
#152 = PRODUCT_DEFINITION_SHAPE ( 'NONE', 'NONE',  #64 ) ;
#153 = DIRECTION ( 'NONE',  ( -0.000000000000000000, -0.000000000000000000, -1.000000000000000000 ) ) ;
#154 = EDGE_LOOP ( 'NONE', ( #178, #92 ) ) ;
#155 = EDGE_CURVE ( 'NONE', #8, #49, #91, .T. ) ;
#156 = DIRECTION ( 'NONE',  ( 1.000000000000000000, 0.000000000000000000, 0.000000000000000000 ) ) ;
#157 = ORIENTED_EDGE ( 'NONE', *, *, #144, .F. ) ;
#158 = CARTESIAN_POINT ( 'NONE',  ( 0.000000000000000000, 0.000000000000000000, 7.000000000000000000 ) ) ;
#159 = CARTESIAN_POINT ( 'NONE',  ( 0.000000000000000000, 0.000000000000000000, 7.000000000000000000 ) ) ;
#160 = CALENDAR_DATE ( 2023, 13, 2 ) ;
#161 = CARTESIAN_POINT ( 'NONE',  ( 0.000000000000000000, 0.000000000000000000, 125.0000000000000000 ) ) ;
#162 = AXIS2_PLACEMENT_3D ( 'NONE', #245, #27, #183 ) ;
#163 = APPROVAL_DATE_TIME ( #246, #124 ) ;
#164 = CC_DESIGN_DATE_AND_TIME_ASSIGNMENT ( #122, #207, ( #253 ) ) ;
#165 = DATE_AND_TIME ( #189, #234 ) ;
#166 = PERSON_AND_ORGANIZATION ( #230, #127 ) ;
#167 = EDGE_CURVE ( 'NONE', #196, #199, #114, .T. ) ;
#168 = AXIS2_PLACEMENT_3D ( 'NONE', #16, #34, #7 ) ;
#169 = ADVANCED_FACE ( 'NONE', ( #131, #239 ), #150, .T. ) ;
#170 = AXIS2_PLACEMENT_3D ( 'NONE', #133, #153, #33 ) ;
#171 = ORIENTED_EDGE ( 'NONE', *, *, #144, .T. ) ;
#172 = ORIENTED_EDGE ( 'NONE', *, *, #83, .F. ) ;
#173 = APPROVAL_PERSON_ORGANIZATION ( #223, #112, #119 ) ;
#174 = PLANE ( 'NONE',  #197 ) ;
#175 = ORIENTED_EDGE ( 'NONE', *, *, #136, .F. ) ;
#176 = APPROVAL ( #96, 'NEURÈENÝ' ) ;
#177 = DIRECTION ( 'NONE',  ( 0.000000000000000000, 0.000000000000000000, 1.000000000000000000 ) ) ;
#178 = ORIENTED_EDGE ( 'NONE', *, *, #167, .T. ) ;
#179 = AXIS2_PLACEMENT_3D ( 'NONE', #41, #219, #55 ) ;
#180 = PRODUCT_DEFINITION_FORMATION_WITH_SPECIFIED_SOURCE ( 'LIBOVOLNÝ', '', #46, .NOT_KNOWN. ) ;
#181 = CARTESIAN_POINT ( 'NONE',  ( 0.000000000000000000, 0.000000000000000000, 0.000000000000000000 ) ) ;
#182 = ADVANCED_BREP_SHAPE_REPRESENTATION ( 'faee', ( #213, #9 ), #93 ) ;
#183 = DIRECTION ( 'NONE',  ( 1.000000000000000000, 0.000000000000000000, 0.000000000000000000 ) ) ;
#184 = APPROVAL_ROLE ( '' ) ;
#185 = FACE_OUTER_BOUND ( 'NONE', #17, .T. ) ;
#186 = APPROVAL_STATUS ( 'not_yet_approved' ) ;
#187 = CC_DESIGN_PERSON_AND_ORGANIZATION_ASSIGNMENT ( #142, #99, ( #64 ) ) ;
#188 = CARTESIAN_POINT ( 'NONE',  ( 7.750000000000000000, 9.491012693391987787E-16, 125.0000000000000000 ) ) ;
#189 = CALENDAR_DATE ( 2023, 13, 2 ) ;
#190 = SHAPE_DEFINITION_REPRESENTATION ( #152, #182 ) ;
#191 = AXIS2_PLACEMENT_3D ( 'NONE', #38, #65, #156 ) ;
#192 = CC_DESIGN_DATE_AND_TIME_ASSIGNMENT ( #228, #102, ( #64 ) ) ;
#193 = DIRECTION ( 'NONE',  ( 1.000000000000000000, 0.000000000000000000, -0.000000000000000000 ) ) ;
#194 = DIRECTION ( 'NONE',  ( 0.000000000000000000, 0.000000000000000000, 1.000000000000000000 ) ) ;
#195 = AXIS2_PLACEMENT_3D ( 'NONE', #97, #15, #74 ) ;
#196 = VERTEX_POINT ( 'NONE', #244 ) ;
#197 = AXIS2_PLACEMENT_3D ( 'NONE', #48, #67, #193 ) ;
#198 = DIRECTION ( 'NONE',  ( 0.000000000000000000, 0.000000000000000000, 1.000000000000000000 ) ) ;
#199 = VERTEX_POINT ( 'NONE', #85 ) ;
#200 = DIRECTION ( 'NONE',  ( 1.000000000000000000, 0.000000000000000000, 0.000000000000000000 ) ) ;
#201 = ORIENTED_EDGE ( 'NONE', *, *, #5, .T. ) ;
#202 = APPLICATION_PROTOCOL_DEFINITION ( 'international standard', 'config_control_design', 1994, #101 ) ;
#203 = CARTESIAN_POINT ( 'NONE',  ( -7.750000000000000000, 0.000000000000000000, 125.0000000000000000 ) ) ;
#204 = VECTOR ( 'NONE', #22, 1000.000000000000000 ) ;
#205 = FACE_OUTER_BOUND ( 'NONE', #66, .T. ) ;
#206 = CARTESIAN_POINT ( 'NONE',  ( 11.00000000000000000, 1.347111479062088405E-15, 7.000000000000000000 ) ) ;
#207 = DATE_TIME_ROLE ( 'classification_date' ) ;
#208 = COORDINATED_UNIVERSAL_TIME_OFFSET ( 1, 0, .AHEAD. ) ;
#209 = LOCAL_TIME ( 10, 49, 4.000000000000000000, #208 ) ;
#210 = AXIS2_PLACEMENT_3D ( 'NONE', #242, #198, #138 ) ;
#211 = CC_DESIGN_PERSON_AND_ORGANIZATION_ASSIGNMENT ( #123, #44, ( #180 ) ) ;
#212 = AXIS2_PLACEMENT_3D ( 'NONE', #224, #77, #108 ) ;
#213 = MANIFOLD_SOLID_BREP ( 'Pøidat vysunutím3', #61 ) ;
#214 = CARTESIAN_POINT ( 'NONE',  ( 0.000000000000000000, 0.000000000000000000, 7.000000000000000000 ) ) ;
#215 = FACE_OUTER_BOUND ( 'NONE', #129, .T. ) ;
#216 = ORIENTED_EDGE ( 'NONE', *, *, #56, .F. ) ;
#217 = CC_DESIGN_APPROVAL ( #124, ( #180 ) ) ;
#218 = CARTESIAN_POINT ( 'NONE',  ( 7.750000000000000000, 9.491012693391987787E-16, 7.000000000000000000 ) ) ;
#219 = DIRECTION ( 'NONE',  ( -0.000000000000000000, -0.000000000000000000, -1.000000000000000000 ) ) ;
#220 = PERSON_AND_ORGANIZATION ( #230, #127 ) ;
#221 = CYLINDRICAL_SURFACE ( 'NONE', #179, 11.00000000000000000 ) ;
#222 = CIRCLE ( 'NONE', #104, 7.750000000000000000 ) ;
#223 = PERSON_AND_ORGANIZATION ( #230, #127 ) ;
#224 = CARTESIAN_POINT ( 'NONE',  ( 0.000000000000000000, 0.000000000000000000, 0.000000000000000000 ) ) ;
#225 = DATE_AND_TIME ( #160, #21 ) ;
#226 = EDGE_CURVE ( 'NONE', #84, #8, #80, .T. ) ;
#227 = PERSON_AND_ORGANIZATION_ROLE ( 'design_owner' ) ;
#228 = DATE_AND_TIME ( #252, #60 ) ;
#229 = LOCAL_TIME ( 10, 49, 4.000000000000000000, #42 ) ;
#230 = PERSON ( 'NEURÈENÝ', 'NEURÈENÝ', 'NEURÈENÝ', ('NEURÈENÝ'), ('NEURÈENÝ'), ('NEURÈENÝ') ) ;
#231 = CC_DESIGN_PERSON_AND_ORGANIZATION_ASSIGNMENT ( #220, #227, ( #46 ) ) ;
#232 = APPLICATION_CONTEXT ( 'configuration controlled 3d designs of mechanical parts and assemblies' ) ;
#233 = ADVANCED_FACE ( 'NONE', ( #215 ), #135, .T. ) ;
#234 = LOCAL_TIME ( 10, 49, 4.000000000000000000, #45 ) ;
#235 = DIRECTION ( 'NONE',  ( -0.000000000000000000, -0.000000000000000000, -1.000000000000000000 ) ) ;
#236 = EDGE_LOOP ( 'NONE', ( #134, #35, #171, #243 ) ) ;
#237 = CARTESIAN_POINT ( 'NONE',  ( 11.00000000000000000, 1.347111479062088405E-15, 0.000000000000000000 ) ) ;
#238 = VERTEX_POINT ( 'NONE', #218 ) ;
#239 = FACE_OUTER_BOUND ( 'NONE', #154, .T. ) ;
#240 = ORIENTED_EDGE ( 'NONE', *, *, #126, .T. ) ;
#241 = CC_DESIGN_SECURITY_CLASSIFICATION ( #253, ( #180 ) ) ;
#242 = CARTESIAN_POINT ( 'NONE',  ( 0.000000000000000000, 0.000000000000000000, 0.000000000000000000 ) ) ;
#243 = ORIENTED_EDGE ( 'NONE', *, *, #105, .T. ) ;
#244 = CARTESIAN_POINT ( 'NONE',  ( -11.00000000000000000, 0.000000000000000000, 7.000000000000000000 ) ) ;
#245 = CARTESIAN_POINT ( 'NONE',  ( 0.000000000000000000, 0.000000000000000000, 7.000000000000000000 ) ) ;
#246 = DATE_AND_TIME ( #75, #229 ) ;
#247 = DIRECTION ( 'NONE',  ( 0.000000000000000000, 0.000000000000000000, 1.000000000000000000 ) ) ;
#248 = AXIS2_PLACEMENT_3D ( 'NONE', #214, #70, #110 ) ;
#249 = PERSON_AND_ORGANIZATION ( #230, #127 ) ;
#250 = APPROVAL_DATE_TIME ( #165, #112 ) ;
#251 = SECURITY_CLASSIFICATION_LEVEL ( 'unclassified' ) ;
#252 = CALENDAR_DATE ( 2023, 13, 2 ) ;
#253 = SECURITY_CLASSIFICATION ( '', '', #251 ) ;
#254 = CC_DESIGN_PERSON_AND_ORGANIZATION_ASSIGNMENT ( #166, #103, ( #180 ) ) ;
#255 = VERTEX_POINT ( 'NONE', #237 ) ;
ENDSEC;
END-ISO-10303-21;
