ISO-10303-21;
HEADER;
FILE_DESCRIPTION (( 'STEP AP203' ),
    '1' );
FILE_NAME ('65b7.STEP',
    '2023-02-13T16:24:00',
    ( '' ),
    ( '' ),
    'SwSTEP 2.0',
    'SolidWorks 2019',
    '' );
FILE_SCHEMA (( 'CONFIG_CONTROL_DESIGN' ));
ENDSEC;

DATA;
#1 = APPLICATION_CONTEXT ( 'configuration controlled 3d designs of mechanical parts and assemblies' ) ;
#2 = DATE_TIME_ROLE ( 'creation_date' ) ;
#3 = VECTOR ( 'NONE', #38, 1000.000000000000000 ) ;
#4 = APPROVAL_STATUS ( 'not_yet_approved' ) ;
#5 = PERSON_AND_ORGANIZATION_ROLE ( 'creator' ) ;
#6 = CLOSED_SHELL ( 'NONE', ( #24, #29, #203, #111, #143, #174, #162 ) ) ;
#7 = ORIENTED_EDGE ( 'NONE', *, *, #177, .T. ) ;
#8 = VERTEX_POINT ( 'NONE', #89 ) ;
#9 = ORIENTED_EDGE ( 'NONE', *, *, #11, .F. ) ;
#10 = CIRCLE ( 'NONE', #202, 1.750000000000000000 ) ;
#11 = EDGE_CURVE ( 'NONE', #221, #49, #183, .T. ) ;
#12 = ORIENTED_EDGE ( 'NONE', *, *, #93, .F. ) ;
#13 = PRODUCT_RELATED_PRODUCT_CATEGORY ( 'detail', '', ( #20 ) ) ;
#14 = FACE_OUTER_BOUND ( 'NONE', #33, .T. ) ;
#15 = DIRECTION ( 'NONE',  ( 0.000000000000000000, 0.000000000000000000, 1.000000000000000000 ) ) ;
#16 = CARTESIAN_POINT ( 'NONE',  ( 0.000000000000000000, 0.000000000000000000, 125.0000000000000000 ) ) ;
#17 = DIRECTION ( 'NONE',  ( 1.000000000000000000, 0.000000000000000000, 0.000000000000000000 ) ) ;
#18 = DIRECTION ( 'NONE',  ( -0.000000000000000000, -0.000000000000000000, -1.000000000000000000 ) ) ;
#19 = LOCAL_TIME ( 17, 24, 0.000000000000000000, #180 ) ;
#20 = PRODUCT ( '65b7', '65b7', '', ( #198 ) ) ;
#21 = DIRECTION ( 'NONE',  ( 1.000000000000000000, 0.000000000000000000, 0.000000000000000000 ) ) ;
#22 = PERSON_AND_ORGANIZATION ( #105, #110 ) ;
#23 = DATE_TIME_ROLE ( 'classification_date' ) ;
#24 = ADVANCED_FACE ( 'NONE', ( #209 ), #92, .T. ) ;
#25 = UNCERTAINTY_MEASURE_WITH_UNIT (LENGTH_MEASURE( 1.000000000000000082E-05 ), #234, 'distance_accuracy_value', 'NONE');
#26 = CALENDAR_DATE ( 2023, 13, 2 ) ;
#27 = LOCAL_TIME ( 17, 24, 0.000000000000000000, #64 ) ;
#28 = CALENDAR_DATE ( 2023, 13, 2 ) ;
#29 = ADVANCED_FACE ( 'NONE', ( #14 ), #148, .T. ) ;
#30 = AXIS2_PLACEMENT_3D ( 'NONE', #96, #173, #79 ) ;
#31 = DIRECTION ( 'NONE',  ( 0.000000000000000000, 0.000000000000000000, 1.000000000000000000 ) ) ;
#32 = ORIENTED_EDGE ( 'NONE', *, *, #227, .F. ) ;
#33 = EDGE_LOOP ( 'NONE', ( #107, #188, #126, #243 ) ) ;
#34 = DIRECTION ( 'NONE',  ( 1.000000000000000000, 0.000000000000000000, 0.000000000000000000 ) ) ;
#35 = DIRECTION ( 'NONE',  ( -0.000000000000000000, -0.000000000000000000, -1.000000000000000000 ) ) ;
#36 = APPROVAL ( #4, 'NEURÈENÝ' ) ;
#37 = PLANE ( 'NONE',  #145 ) ;
#38 = DIRECTION ( 'NONE',  ( -0.000000000000000000, -0.000000000000000000, -1.000000000000000000 ) ) ;
#39 = LINE ( 'NONE', #60, #246 ) ;
#40 = CYLINDRICAL_SURFACE ( 'NONE', #151, 3.500000000000000000 ) ;
#41 = CARTESIAN_POINT ( 'NONE',  ( -3.500000000000000000, 0.000000000000000000, 3.000000000000000000 ) ) ;
#42 = CIRCLE ( 'NONE', #141, 3.500000000000000000 ) ;
#43 = APPLICATION_PROTOCOL_DEFINITION ( 'international standard', 'config_control_design', 1994, #1 ) ;
#44 = CC_DESIGN_PERSON_AND_ORGANIZATION_ASSIGNMENT ( #45, #200, ( #216 ) ) ;
#45 = PERSON_AND_ORGANIZATION ( #105, #110 ) ;
#46 = PERSON_AND_ORGANIZATION_ROLE ( 'classification_officer' ) ;
#47 = MANIFOLD_SOLID_BREP ( 'Pøidat vysunutím3', #6 ) ;
#48 = LOCAL_TIME ( 17, 24, 0.000000000000000000, #142 ) ;
#49 = VERTEX_POINT ( 'NONE', #74 ) ;
#50 = EDGE_LOOP ( 'NONE', ( #7, #68 ) ) ;
#51 = ORIENTED_EDGE ( 'NONE', *, *, #137, .T. ) ;
#52 = ORIENTED_EDGE ( 'NONE', *, *, #189, .F. ) ;
#53 = CC_DESIGN_SECURITY_CLASSIFICATION ( #66, ( #233 ) ) ;
#54 = DIRECTION ( 'NONE',  ( -0.000000000000000000, -0.000000000000000000, -1.000000000000000000 ) ) ;
#55 = DIRECTION ( 'NONE',  ( 0.000000000000000000, 0.000000000000000000, 1.000000000000000000 ) ) ;
#56 = FACE_OUTER_BOUND ( 'NONE', #50, .T. ) ;
#57 = AXIS2_PLACEMENT_3D ( 'NONE', #215, #252, #194 ) ;
#58 = AXIS2_PLACEMENT_3D ( 'NONE', #97, #55, #112 ) ;
#59 = CIRCLE ( 'NONE', #158, 1.750000000000000000 ) ;
#60 = CARTESIAN_POINT ( 'NONE',  ( -1.750000000000000000, 0.000000000000000000, 125.0000000000000000 ) ) ;
#61 = CARTESIAN_POINT ( 'NONE',  ( 0.000000000000000000, 0.000000000000000000, 0.000000000000000000 ) ) ;
#62 = APPROVAL_ROLE ( '' ) ;
#63 = SECURITY_CLASSIFICATION_LEVEL ( 'unclassified' ) ;
#64 = COORDINATED_UNIVERSAL_TIME_OFFSET ( 1, 0, .AHEAD. ) ;
#65 = APPLICATION_PROTOCOL_DEFINITION ( 'international standard', 'config_control_design', 1994, #204 ) ;
#66 = SECURITY_CLASSIFICATION ( '', '', #63 ) ;
#67 = PERSON_AND_ORGANIZATION ( #105, #110 ) ;
#68 = ORIENTED_EDGE ( 'NONE', *, *, #115, .T. ) ;
#69 = ORIENTED_EDGE ( 'NONE', *, *, #86, .T. ) ;
#70 = ORIENTED_EDGE ( 'NONE', *, *, #93, .T. ) ;
#71 = EDGE_CURVE ( 'NONE', #8, #128, #206, .T. ) ;
#72 = VERTEX_POINT ( 'NONE', #122 ) ;
#73 = VECTOR ( 'NONE', #54, 1000.000000000000000 ) ;
#74 = CARTESIAN_POINT ( 'NONE',  ( 3.500000000000000000, 4.286263797015736595E-16, 0.000000000000000000 ) ) ;
#75 = LINE ( 'NONE', #235, #3 ) ;
#76 = CARTESIAN_POINT ( 'NONE',  ( 1.750000000000000000, 2.143131898507867804E-16, 125.0000000000000000 ) ) ;
#77 = FACE_BOUND ( 'NONE', #228, .T. ) ;
#78 = FACE_OUTER_BOUND ( 'NONE', #208, .T. ) ;
#79 = DIRECTION ( 'NONE',  ( 1.000000000000000000, 0.000000000000000000, -0.000000000000000000 ) ) ;
#80 = PERSON_AND_ORGANIZATION ( #105, #110 ) ;
#81 = PERSON_AND_ORGANIZATION ( #105, #110 ) ;
#82 = PERSON_AND_ORGANIZATION ( #105, #110 ) ;
#83 = EDGE_CURVE ( 'NONE', #49, #72, #124, .T. ) ;
#84 = CALENDAR_DATE ( 2023, 13, 2 ) ;
#85 = ORIENTED_EDGE ( 'NONE', *, *, #115, .F. ) ;
#86 = EDGE_CURVE ( 'NONE', #164, #72, #114, .T. ) ;
#87 = ORIENTED_EDGE ( 'NONE', *, *, #227, .T. ) ;
#88 = APPROVAL_PERSON_ORGANIZATION ( #80, #251, #62 ) ;
#89 = CARTESIAN_POINT ( 'NONE',  ( 1.750000000000000000, 2.143131898507867804E-16, 3.000000000000000000 ) ) ;
#90 = CC_DESIGN_APPROVAL ( #36, ( #216 ) ) ;
#91 = SHAPE_DEFINITION_REPRESENTATION ( #192, #133 ) ;
#92 = CYLINDRICAL_SURFACE ( 'NONE', #187, 1.750000000000000000 ) ;
#93 = EDGE_CURVE ( 'NONE', #72, #49, #102, .T. ) ;
#94 = CARTESIAN_POINT ( 'NONE',  ( 0.000000000000000000, 0.000000000000000000, 3.000000000000000000 ) ) ;
#95 = DIRECTION ( 'NONE',  ( 0.000000000000000000, 0.000000000000000000, 1.000000000000000000 ) ) ;
#96 = CARTESIAN_POINT ( 'NONE',  ( 0.000000000000000000, 0.000000000000000000, 3.000000000000000000 ) ) ;
#97 = CARTESIAN_POINT ( 'NONE',  ( 0.000000000000000000, 0.000000000000000000, 3.000000000000000000 ) ) ;
#98 = CARTESIAN_POINT ( 'NONE',  ( -1.750000000000000000, 0.000000000000000000, 3.000000000000000000 ) ) ;
#99 =( NAMED_UNIT ( * ) PLANE_ANGLE_UNIT ( ) SI_UNIT ( $, .RADIAN. ) );
#100 = APPROVAL_PERSON_ORGANIZATION ( #67, #149, #240 ) ;
#101 = APPROVAL_DATE_TIME ( #182, #36 ) ;
#102 = CIRCLE ( 'NONE', #249, 3.500000000000000000 ) ;
#103 = CARTESIAN_POINT ( 'NONE',  ( 0.000000000000000000, 0.000000000000000000, 3.000000000000000000 ) ) ;
#104 = EDGE_LOOP ( 'NONE', ( #210, #224, #87, #168 ) ) ;
#105 = PERSON ( 'NEURÈENÝ', 'NEURÈENÝ', 'NEURÈENÝ', ('NEURÈENÝ'), ('NEURÈENÝ'), ('NEURÈENÝ') ) ;
#106 = ORIENTED_EDGE ( 'NONE', *, *, #83, .F. ) ;
#107 = ORIENTED_EDGE ( 'NONE', *, *, #220, .F. ) ;
#108 = CARTESIAN_POINT ( 'NONE',  ( 0.000000000000000000, 0.000000000000000000, 3.000000000000000000 ) ) ;
#109 = AXIS2_PLACEMENT_3D ( 'NONE', #213, #254, #156 ) ;
#110 = ORGANIZATION ( 'NEURÈENÝ', 'NEURÈENÝ', '' ) ;
#111 = ADVANCED_FACE ( 'NONE', ( #77, #78 ), #232, .T. ) ;
#112 = DIRECTION ( 'NONE',  ( 1.000000000000000000, 0.000000000000000000, 0.000000000000000000 ) ) ;
#113 = DIRECTION ( 'NONE',  ( -0.000000000000000000, -0.000000000000000000, -1.000000000000000000 ) ) ;
#114 = LINE ( 'NONE', #195, #73 ) ;
#115 = EDGE_CURVE ( 'NONE', #186, #127, #170, .T. ) ;
#116 = CYLINDRICAL_SURFACE ( 'NONE', #120, 1.750000000000000000 ) ;
#117 = LOCAL_TIME ( 17, 24, 0.000000000000000000, #121 ) ;
#118 = CARTESIAN_POINT ( 'NONE',  ( 0.000000000000000000, 0.000000000000000000, 0.000000000000000000 ) ) ;
#119 = DATE_AND_TIME ( #138, #219 ) ;
#120 = AXIS2_PLACEMENT_3D ( 'NONE', #197, #132, #193 ) ;
#121 = COORDINATED_UNIVERSAL_TIME_OFFSET ( 1, 0, .AHEAD. ) ;
#122 = CARTESIAN_POINT ( 'NONE',  ( -3.500000000000000000, 0.000000000000000000, 0.000000000000000000 ) ) ;
#123 = CC_DESIGN_APPROVAL ( #251, ( #233 ) ) ;
#124 = CIRCLE ( 'NONE', #241, 3.500000000000000000 ) ;
#125 = APPROVAL_DATE_TIME ( #165, #149 ) ;
#126 = ORIENTED_EDGE ( 'NONE', *, *, #83, .T. ) ;
#127 = VERTEX_POINT ( 'NONE', #214 ) ;
#128 = VERTEX_POINT ( 'NONE', #98 ) ;
#129 = AXIS2_PLACEMENT_3D ( 'NONE', #118, #160, #163 ) ;
#130 = EDGE_LOOP ( 'NONE', ( #12, #106 ) ) ;
#131 = DIRECTION ( 'NONE',  ( 0.000000000000000000, 0.000000000000000000, 1.000000000000000000 ) ) ;
#132 = DIRECTION ( 'NONE',  ( -0.000000000000000000, -0.000000000000000000, -1.000000000000000000 ) ) ;
#133 = ADVANCED_BREP_SHAPE_REPRESENTATION ( '65b7', ( #47, #129 ), #222 ) ;
#134 = FACE_OUTER_BOUND ( 'NONE', #104, .T. ) ;
#135 = CARTESIAN_POINT ( 'NONE',  ( 0.000000000000000000, 0.000000000000000000, 3.000000000000000000 ) ) ;
#136 = PLANE ( 'NONE',  #57 ) ;
#137 = EDGE_CURVE ( 'NONE', #186, #8, #75, .T. ) ;
#138 = CALENDAR_DATE ( 2023, 13, 2 ) ;
#139 = APPROVAL_ROLE ( '' ) ;
#140 = COORDINATED_UNIVERSAL_TIME_OFFSET ( 1, 0, .AHEAD. ) ;
#141 = AXIS2_PLACEMENT_3D ( 'NONE', #108, #253, #255 ) ;
#142 = COORDINATED_UNIVERSAL_TIME_OFFSET ( 1, 0, .AHEAD. ) ;
#143 = ADVANCED_FACE ( 'NONE', ( #250 ), #37, .F. ) ;
#144 = ORIENTED_EDGE ( 'NONE', *, *, #71, .T. ) ;
#145 = AXIS2_PLACEMENT_3D ( 'NONE', #61, #15, #212 ) ;
#146 = CIRCLE ( 'NONE', #58, 3.500000000000000000 ) ;
#147 = CARTESIAN_POINT ( 'NONE',  ( 3.500000000000000000, 4.286263797015736595E-16, 3.000000000000000000 ) ) ;
#148 = CYLINDRICAL_SURFACE ( 'NONE', #238, 3.500000000000000000 ) ;
#149 = APPROVAL ( #178, 'NEURÈENÝ' ) ;
#150 = CARTESIAN_POINT ( 'NONE',  ( 0.000000000000000000, 0.000000000000000000, 125.0000000000000000 ) ) ;
#151 = AXIS2_PLACEMENT_3D ( 'NONE', #135, #18, #229 ) ;
#152 = FACE_OUTER_BOUND ( 'NONE', #245, .T. ) ;
#153 = CARTESIAN_POINT ( 'NONE',  ( 3.500000000000000000, 4.286263797015736595E-16, 3.000000000000000000 ) ) ;
#154 = CC_DESIGN_APPROVAL ( #149, ( #66 ) ) ;
#155 = CARTESIAN_POINT ( 'NONE',  ( 0.000000000000000000, 0.000000000000000000, 0.000000000000000000 ) ) ;
#156 = DIRECTION ( 'NONE',  ( 1.000000000000000000, 0.000000000000000000, 0.000000000000000000 ) ) ;
#157 = APPROVAL_DATE_TIME ( #119, #251 ) ;
#158 = AXIS2_PLACEMENT_3D ( 'NONE', #191, #95, #171 ) ;
#159 = CC_DESIGN_PERSON_AND_ORGANIZATION_ASSIGNMENT ( #82, #239, ( #233 ) ) ;
#160 = DIRECTION ( 'NONE',  ( 0.000000000000000000, 0.000000000000000000, 1.000000000000000000 ) ) ;
#161 = CALENDAR_DATE ( 2023, 13, 2 ) ;
#162 = ADVANCED_FACE ( 'NONE', ( #56 ), #136, .T. ) ;
#163 = DIRECTION ( 'NONE',  ( 1.000000000000000000, 0.000000000000000000, 0.000000000000000000 ) ) ;
#164 = VERTEX_POINT ( 'NONE', #41 ) ;
#165 = DATE_AND_TIME ( #161, #27 ) ;
#166 = ORIENTED_EDGE ( 'NONE', *, *, #71, .F. ) ;
#167 = DIRECTION ( 'NONE',  ( -1.000000000000000000, 0.000000000000000000, 0.000000000000000000 ) ) ;
#168 = ORIENTED_EDGE ( 'NONE', *, *, #189, .T. ) ;
#169 = DIRECTION ( 'NONE',  ( -1.000000000000000000, 0.000000000000000000, 0.000000000000000000 ) ) ;
#170 = CIRCLE ( 'NONE', #109, 1.750000000000000000 ) ;
#171 = DIRECTION ( 'NONE',  ( 1.000000000000000000, 0.000000000000000000, 0.000000000000000000 ) ) ;
#172 = DIRECTION ( 'NONE',  ( 0.000000000000000000, 0.000000000000000000, 1.000000000000000000 ) ) ;
#173 = DIRECTION ( 'NONE',  ( 0.000000000000000000, 0.000000000000000000, 1.000000000000000000 ) ) ;
#174 = ADVANCED_FACE ( 'NONE', ( #134 ), #116, .T. ) ;
#175 = DIRECTION ( 'NONE',  ( 1.000000000000000000, 0.000000000000000000, 0.000000000000000000 ) ) ;
#176 = PERSON_AND_ORGANIZATION ( #105, #110 ) ;
#177 = EDGE_CURVE ( 'NONE', #127, #186, #10, .T. ) ;
#178 = APPROVAL_STATUS ( 'not_yet_approved' ) ;
#179 =( NAMED_UNIT ( * ) SI_UNIT ( $, .STERADIAN. ) SOLID_ANGLE_UNIT ( ) );
#180 = COORDINATED_UNIVERSAL_TIME_OFFSET ( 1, 0, .AHEAD. ) ;
#181 = EDGE_CURVE ( 'NONE', #164, #221, #42, .T. ) ;
#182 = DATE_AND_TIME ( #84, #19 ) ;
#183 = LINE ( 'NONE', #147, #196 ) ;
#184 = ORIENTED_EDGE ( 'NONE', *, *, #181, .F. ) ;
#185 = CC_DESIGN_PERSON_AND_ORGANIZATION_ASSIGNMENT ( #176, #217, ( #20 ) ) ;
#186 = VERTEX_POINT ( 'NONE', #76 ) ;
#187 = AXIS2_PLACEMENT_3D ( 'NONE', #150, #190, #167 ) ;
#188 = ORIENTED_EDGE ( 'NONE', *, *, #11, .T. ) ;
#189 = EDGE_CURVE ( 'NONE', #128, #8, #59, .T. ) ;
#190 = DIRECTION ( 'NONE',  ( -0.000000000000000000, -0.000000000000000000, -1.000000000000000000 ) ) ;
#191 = CARTESIAN_POINT ( 'NONE',  ( 0.000000000000000000, 0.000000000000000000, 3.000000000000000000 ) ) ;
#192 = PRODUCT_DEFINITION_SHAPE ( 'NONE', 'NONE',  #216 ) ;
#193 = DIRECTION ( 'NONE',  ( -1.000000000000000000, 0.000000000000000000, 0.000000000000000000 ) ) ;
#194 = DIRECTION ( 'NONE',  ( 1.000000000000000000, 0.000000000000000000, -0.000000000000000000 ) ) ;
#195 = CARTESIAN_POINT ( 'NONE',  ( -3.500000000000000000, 0.000000000000000000, 3.000000000000000000 ) ) ;
#196 = VECTOR ( 'NONE', #35, 1000.000000000000000 ) ;
#197 = CARTESIAN_POINT ( 'NONE',  ( 0.000000000000000000, 0.000000000000000000, 125.0000000000000000 ) ) ;
#198 = MECHANICAL_CONTEXT ( 'NONE', #204, 'mechanical' ) ;
#199 = DATE_AND_TIME ( #26, #48 ) ;
#200 = PERSON_AND_ORGANIZATION_ROLE ( 'creator' ) ;
#201 = APPROVAL_PERSON_ORGANIZATION ( #22, #36, #139 ) ;
#202 = AXIS2_PLACEMENT_3D ( 'NONE', #16, #172, #17 ) ;
#203 = ADVANCED_FACE ( 'NONE', ( #152 ), #40, .T. ) ;
#204 = APPLICATION_CONTEXT ( 'configuration controlled 3d designs of mechanical parts and assemblies' ) ;
#205 = CARTESIAN_POINT ( 'NONE',  ( 0.000000000000000000, 0.000000000000000000, 0.000000000000000000 ) ) ;
#206 = CIRCLE ( 'NONE', #244, 1.750000000000000000 ) ;
#207 = CC_DESIGN_PERSON_AND_ORGANIZATION_ASSIGNMENT ( #81, #5, ( #233 ) ) ;
#208 = EDGE_LOOP ( 'NONE', ( #247, #226 ) ) ;
#209 = FACE_OUTER_BOUND ( 'NONE', #211, .T. ) ;
#210 = ORIENTED_EDGE ( 'NONE', *, *, #137, .F. ) ;
#211 = EDGE_LOOP ( 'NONE', ( #85, #51, #144, #32 ) ) ;
#212 = DIRECTION ( 'NONE',  ( 1.000000000000000000, 0.000000000000000000, -0.000000000000000000 ) ) ;
#213 = CARTESIAN_POINT ( 'NONE',  ( 0.000000000000000000, 0.000000000000000000, 125.0000000000000000 ) ) ;
#214 = CARTESIAN_POINT ( 'NONE',  ( -1.750000000000000000, 0.000000000000000000, 125.0000000000000000 ) ) ;
#215 = CARTESIAN_POINT ( 'NONE',  ( 0.000000000000000000, 0.000000000000000000, 125.0000000000000000 ) ) ;
#216 = PRODUCT_DEFINITION ( 'NEZNÁMÝ', '', #233, #231 ) ;
#217 = PERSON_AND_ORGANIZATION_ROLE ( 'design_owner' ) ;
#218 = DATE_AND_TIME ( #28, #117 ) ;
#219 = LOCAL_TIME ( 17, 24, 0.000000000000000000, #140 ) ;
#220 = EDGE_CURVE ( 'NONE', #221, #164, #146, .T. ) ;
#221 = VERTEX_POINT ( 'NONE', #153 ) ;
#222 =( GEOMETRIC_REPRESENTATION_CONTEXT ( 3 ) GLOBAL_UNCERTAINTY_ASSIGNED_CONTEXT ( ( #25 ) ) GLOBAL_UNIT_ASSIGNED_CONTEXT ( ( #234, #99, #179 ) ) REPRESENTATION_CONTEXT ( 'NONE', 'WORKASPACE' ) );
#223 = CC_DESIGN_DATE_AND_TIME_ASSIGNMENT ( #199, #23, ( #66 ) ) ;
#224 = ORIENTED_EDGE ( 'NONE', *, *, #177, .F. ) ;
#225 = DIRECTION ( 'NONE',  ( 0.000000000000000000, 0.000000000000000000, 1.000000000000000000 ) ) ;
#226 = ORIENTED_EDGE ( 'NONE', *, *, #220, .T. ) ;
#227 = EDGE_CURVE ( 'NONE', #127, #128, #39, .T. ) ;
#228 = EDGE_LOOP ( 'NONE', ( #52, #166 ) ) ;
#229 = DIRECTION ( 'NONE',  ( -1.000000000000000000, 0.000000000000000000, 0.000000000000000000 ) ) ;
#230 = CC_DESIGN_DATE_AND_TIME_ASSIGNMENT ( #218, #2, ( #216 ) ) ;
#231 = DESIGN_CONTEXT ( 'detailed design', #1, 'design' ) ;
#232 = PLANE ( 'NONE',  #30 ) ;
#233 = PRODUCT_DEFINITION_FORMATION_WITH_SPECIFIED_SOURCE ( 'LIBOVOLNÝ', '', #20, .NOT_KNOWN. ) ;
#234 =( LENGTH_UNIT ( ) NAMED_UNIT ( * ) SI_UNIT ( .MILLI., .METRE. ) );
#235 = CARTESIAN_POINT ( 'NONE',  ( 1.750000000000000000, 2.143131898507867804E-16, 125.0000000000000000 ) ) ;
#236 = APPROVAL_STATUS ( 'not_yet_approved' ) ;
#237 = CC_DESIGN_PERSON_AND_ORGANIZATION_ASSIGNMENT ( #242, #46, ( #66 ) ) ;
#238 = AXIS2_PLACEMENT_3D ( 'NONE', #94, #248, #169 ) ;
#239 = PERSON_AND_ORGANIZATION_ROLE ( 'design_supplier' ) ;
#240 = APPROVAL_ROLE ( '' ) ;
#241 = AXIS2_PLACEMENT_3D ( 'NONE', #205, #31, #21 ) ;
#242 = PERSON_AND_ORGANIZATION ( #105, #110 ) ;
#243 = ORIENTED_EDGE ( 'NONE', *, *, #86, .F. ) ;
#244 = AXIS2_PLACEMENT_3D ( 'NONE', #103, #225, #34 ) ;
#245 = EDGE_LOOP ( 'NONE', ( #9, #184, #69, #70 ) ) ;
#246 = VECTOR ( 'NONE', #113, 1000.000000000000000 ) ;
#247 = ORIENTED_EDGE ( 'NONE', *, *, #181, .T. ) ;
#248 = DIRECTION ( 'NONE',  ( -0.000000000000000000, -0.000000000000000000, -1.000000000000000000 ) ) ;
#249 = AXIS2_PLACEMENT_3D ( 'NONE', #155, #131, #175 ) ;
#250 = FACE_OUTER_BOUND ( 'NONE', #130, .T. ) ;
#251 = APPROVAL ( #236, 'NEURÈENÝ' ) ;
#252 = DIRECTION ( 'NONE',  ( 0.000000000000000000, 0.000000000000000000, 1.000000000000000000 ) ) ;
#253 = DIRECTION ( 'NONE',  ( 0.000000000000000000, 0.000000000000000000, 1.000000000000000000 ) ) ;
#254 = DIRECTION ( 'NONE',  ( 0.000000000000000000, 0.000000000000000000, 1.000000000000000000 ) ) ;
#255 = DIRECTION ( 'NONE',  ( 1.000000000000000000, 0.000000000000000000, 0.000000000000000000 ) ) ;
ENDSEC;
END-ISO-10303-21;
