ISO-10303-21;
HEADER;
FILE_DESCRIPTION (( 'STEP AP203' ),
    '1' );
FILE_NAME ('f512.STEP',
    '2023-02-13T16:55:33',
    ( '' ),
    ( '' ),
    'SwSTEP 2.0',
    'SolidWorks 2019',
    '' );
FILE_SCHEMA (( 'CONFIG_CONTROL_DESIGN' ));
ENDSEC;

DATA;
#1 = APPROVAL_PERSON_ORGANIZATION ( #61, #33, #214 ) ;
#2 = VERTEX_POINT ( 'NONE', #237 ) ;
#3 = ORIENTED_EDGE ( 'NONE', *, *, #93, .T. ) ;
#4 = LINE ( 'NONE', #66, #23 ) ;
#5 = EDGE_CURVE ( 'NONE', #204, #2, #4, .T. ) ;
#6 = AXIS2_PLACEMENT_3D ( 'NONE', #99, #62, #217 ) ;
#7 = ORIENTED_EDGE ( 'NONE', *, *, #179, .T. ) ;
#8 = APPLICATION_PROTOCOL_DEFINITION ( 'international standard', 'config_control_design', 1994, #86 ) ;
#9 = VERTEX_POINT ( 'NONE', #221 ) ;
#10 = APPROVAL_STATUS ( 'not_yet_approved' ) ;
#11 = PRODUCT_DEFINITION ( 'NEZNÁMÝ', '', #172, #220 ) ;
#12 = CARTESIAN_POINT ( 'NONE',  ( 0.000000000000000000, 0.000000000000000000, 125.0000000000000000 ) ) ;
#13 = CIRCLE ( 'NONE', #102, 1.000000000000000000 ) ;
#14 = DATE_TIME_ROLE ( 'creation_date' ) ;
#15 = CC_DESIGN_APPROVAL ( #33, ( #254 ) ) ;
#16 = DIRECTION ( 'NONE',  ( 1.000000000000000000, 0.000000000000000000, -0.000000000000000000 ) ) ;
#17 = SECURITY_CLASSIFICATION_LEVEL ( 'unclassified' ) ;
#18 = DIRECTION ( 'NONE',  ( 0.000000000000000000, 0.000000000000000000, 1.000000000000000000 ) ) ;
#19 = EDGE_CURVE ( 'NONE', #2, #201, #165, .T. ) ;
#20 = CARTESIAN_POINT ( 'NONE',  ( 0.000000000000000000, 0.000000000000000000, 2.000000000000000000 ) ) ;
#21 = FACE_OUTER_BOUND ( 'NONE', #238, .T. ) ;
#22 = CYLINDRICAL_SURFACE ( 'NONE', #6, 1.000000000000000000 ) ;
#23 = VECTOR ( 'NONE', #87, 1000.000000000000000 ) ;
#24 = AXIS2_PLACEMENT_3D ( 'NONE', #255, #42, #139 ) ;
#25 = ORIENTED_EDGE ( 'NONE', *, *, #5, .F. ) ;
#26 = VERTEX_POINT ( 'NONE', #40 ) ;
#27 = ORIENTED_EDGE ( 'NONE', *, *, #28, .T. ) ;
#28 = EDGE_CURVE ( 'NONE', #31, #180, #13, .T. ) ;
#29 = EDGE_LOOP ( 'NONE', ( #144, #125, #156, #197 ) ) ;
#30 = PERSON_AND_ORGANIZATION_ROLE ( 'design_owner' ) ;
#31 = VERTEX_POINT ( 'NONE', #136 ) ;
#32 = APPROVAL_PERSON_ORGANIZATION ( #166, #79, #206 ) ;
#33 = APPROVAL ( #188, 'NEURÈENÝ' ) ;
#34 = DATE_AND_TIME ( #88, #171 ) ;
#35 = SHAPE_DEFINITION_REPRESENTATION ( #196, #98 ) ;
#36 = FACE_BOUND ( 'NONE', #129, .T. ) ;
#37 = PERSON_AND_ORGANIZATION ( #185, #109 ) ;
#38 = CARTESIAN_POINT ( 'NONE',  ( 1.000000000000000000, 1.224646799147353207E-16, 2.000000000000000000 ) ) ;
#39 = CALENDAR_DATE ( 2023, 13, 2 ) ;
#40 = CARTESIAN_POINT ( 'NONE',  ( -2.000000000000000000, 0.000000000000000000, 2.000000000000000000 ) ) ;
#41 = ADVANCED_FACE ( 'NONE', ( #215 ), #223, .T. ) ;
#42 = DIRECTION ( 'NONE',  ( 0.000000000000000000, 0.000000000000000000, 1.000000000000000000 ) ) ;
#43 = DIRECTION ( 'NONE',  ( 1.000000000000000000, 0.000000000000000000, -0.000000000000000000 ) ) ;
#44 = AXIS2_PLACEMENT_3D ( 'NONE', #225, #250, #55 ) ;
#45 = AXIS2_PLACEMENT_3D ( 'NONE', #177, #105, #155 ) ;
#46 = EDGE_LOOP ( 'NONE', ( #111, #160 ) ) ;
#47 = ORIENTED_EDGE ( 'NONE', *, *, #50, .F. ) ;
#48 = CC_DESIGN_APPROVAL ( #118, ( #172 ) ) ;
#49 =( NAMED_UNIT ( * ) SI_UNIT ( $, .STERADIAN. ) SOLID_ANGLE_UNIT ( ) );
#50 = EDGE_CURVE ( 'NONE', #26, #204, #91, .T. ) ;
#51 = ORIENTED_EDGE ( 'NONE', *, *, #248, .F. ) ;
#52 = APPLICATION_PROTOCOL_DEFINITION ( 'international standard', 'config_control_design', 1994, #108 ) ;
#53 = COORDINATED_UNIVERSAL_TIME_OFFSET ( 1, 0, .AHEAD. ) ;
#54 = DIRECTION ( 'NONE',  ( 1.000000000000000000, 0.000000000000000000, 0.000000000000000000 ) ) ;
#55 = DIRECTION ( 'NONE',  ( 1.000000000000000000, 0.000000000000000000, 0.000000000000000000 ) ) ;
#56 = COORDINATED_UNIVERSAL_TIME_OFFSET ( 1, 0, .AHEAD. ) ;
#57 = CLOSED_SHELL ( 'NONE', ( #222, #41, #175, #170, #192, #212, #162 ) ) ;
#58 = APPROVAL_PERSON_ORGANIZATION ( #92, #118, #161 ) ;
#59 = CARTESIAN_POINT ( 'NONE',  ( 0.000000000000000000, 0.000000000000000000, 2.000000000000000000 ) ) ;
#60 = VECTOR ( 'NONE', #101, 1000.000000000000000 ) ;
#61 = PERSON_AND_ORGANIZATION ( #185, #109 ) ;
#62 = DIRECTION ( 'NONE',  ( -0.000000000000000000, -0.000000000000000000, -1.000000000000000000 ) ) ;
#63 = AXIS2_PLACEMENT_3D ( 'NONE', #147, #187, #169 ) ;
#64 = UNCERTAINTY_MEASURE_WITH_UNIT (LENGTH_MEASURE( 1.000000000000000082E-05 ), #69, 'distance_accuracy_value', 'NONE');
#65 = ORIENTED_EDGE ( 'NONE', *, *, #219, .T. ) ;
#66 = CARTESIAN_POINT ( 'NONE',  ( 2.000000000000000000, 2.449293598294706414E-16, 2.000000000000000000 ) ) ;
#67 = CIRCLE ( 'NONE', #44, 2.000000000000000000 ) ;
#68 = LOCAL_TIME ( 17, 55, 33.00000000000000000, #249 ) ;
#69 =( LENGTH_UNIT ( ) NAMED_UNIT ( * ) SI_UNIT ( .MILLI., .METRE. ) );
#70 = DIRECTION ( 'NONE',  ( 0.000000000000000000, 0.000000000000000000, 1.000000000000000000 ) ) ;
#71 = APPROVAL_DATE_TIME ( #148, #33 ) ;
#72 = DIRECTION ( 'NONE',  ( 1.000000000000000000, 0.000000000000000000, 0.000000000000000000 ) ) ;
#73 = CARTESIAN_POINT ( 'NONE',  ( 0.000000000000000000, 0.000000000000000000, 2.000000000000000000 ) ) ;
#74 = PLANE ( 'NONE',  #100 ) ;
#75 = DATE_AND_TIME ( #247, #191 ) ;
#76 = AXIS2_PLACEMENT_3D ( 'NONE', #117, #131, #54 ) ;
#77 = DATE_AND_TIME ( #186, #134 ) ;
#78 = DIRECTION ( 'NONE',  ( 1.000000000000000000, 0.000000000000000000, -0.000000000000000000 ) ) ;
#79 = APPROVAL ( #146, 'NEURÈENÝ' ) ;
#80 = PRODUCT ( 'f512', 'f512', '', ( #126 ) ) ;
#81 = PLANE ( 'NONE',  #135 ) ;
#82 = CARTESIAN_POINT ( 'NONE',  ( 0.000000000000000000, 0.000000000000000000, 0.000000000000000000 ) ) ;
#83 = AXIS2_PLACEMENT_3D ( 'NONE', #159, #70, #72 ) ;
#84 = EDGE_LOOP ( 'NONE', ( #25, #47, #65, #3 ) ) ;
#85 = ORIENTED_EDGE ( 'NONE', *, *, #219, .F. ) ;
#86 = APPLICATION_CONTEXT ( 'configuration controlled 3d designs of mechanical parts and assemblies' ) ;
#87 = DIRECTION ( 'NONE',  ( -0.000000000000000000, -0.000000000000000000, -1.000000000000000000 ) ) ;
#88 = CALENDAR_DATE ( 2023, 13, 2 ) ;
#89 = DATE_AND_TIME ( #132, #68 ) ;
#90 = FACE_OUTER_BOUND ( 'NONE', #240, .T. ) ;
#91 = CIRCLE ( 'NONE', #203, 2.000000000000000000 ) ;
#92 = PERSON_AND_ORGANIZATION ( #185, #109 ) ;
#93 = EDGE_CURVE ( 'NONE', #201, #2, #67, .T. ) ;
#94 = DIRECTION ( 'NONE',  ( -0.000000000000000000, -0.000000000000000000, -1.000000000000000000 ) ) ;
#95 = LINE ( 'NONE', #209, #234 ) ;
#96 = CARTESIAN_POINT ( 'NONE',  ( -1.000000000000000000, 0.000000000000000000, 125.0000000000000000 ) ) ;
#97 = CYLINDRICAL_SURFACE ( 'NONE', #251, 1.000000000000000000 ) ;
#98 = ADVANCED_BREP_SHAPE_REPRESENTATION ( 'f512', ( #158, #45 ), #150 ) ;
#99 = CARTESIAN_POINT ( 'NONE',  ( 0.000000000000000000, 0.000000000000000000, 125.0000000000000000 ) ) ;
#100 = AXIS2_PLACEMENT_3D ( 'NONE', #184, #18, #16 ) ;
#101 = DIRECTION ( 'NONE',  ( -0.000000000000000000, -0.000000000000000000, -1.000000000000000000 ) ) ;
#102 = AXIS2_PLACEMENT_3D ( 'NONE', #12, #133, #145 ) ;
#103 = LOCAL_TIME ( 17, 55, 33.00000000000000000, #110 ) ;
#104 = ORIENTED_EDGE ( 'NONE', *, *, #19, .T. ) ;
#105 = DIRECTION ( 'NONE',  ( 0.000000000000000000, 0.000000000000000000, 1.000000000000000000 ) ) ;
#106 = ORIENTED_EDGE ( 'NONE', *, *, #179, .F. ) ;
#107 = ORIENTED_EDGE ( 'NONE', *, *, #50, .T. ) ;
#108 = APPLICATION_CONTEXT ( 'configuration controlled 3d designs of mechanical parts and assemblies' ) ;
#109 = ORGANIZATION ( 'NEURÈENÝ', 'NEURÈENÝ', '' ) ;
#110 = COORDINATED_UNIVERSAL_TIME_OFFSET ( 1, 0, .AHEAD. ) ;
#111 = ORIENTED_EDGE ( 'NONE', *, *, #93, .F. ) ;
#112 = DIRECTION ( 'NONE',  ( 0.000000000000000000, 0.000000000000000000, 1.000000000000000000 ) ) ;
#113 = EDGE_CURVE ( 'NONE', #31, #9, #211, .T. ) ;
#114 = AXIS2_PLACEMENT_3D ( 'NONE', #20, #138, #244 ) ;
#115 = APPROVAL_DATE_TIME ( #34, #79 ) ;
#116 = FACE_OUTER_BOUND ( 'NONE', #199, .T. ) ;
#117 = CARTESIAN_POINT ( 'NONE',  ( 0.000000000000000000, 0.000000000000000000, 125.0000000000000000 ) ) ;
#118 = APPROVAL ( #10, 'NEURÈENÝ' ) ;
#119 = LINE ( 'NONE', #173, #60 ) ;
#120 = DIRECTION ( 'NONE',  ( 1.000000000000000000, 0.000000000000000000, 0.000000000000000000 ) ) ;
#121 = CARTESIAN_POINT ( 'NONE',  ( -2.000000000000000000, 0.000000000000000000, 0.000000000000000000 ) ) ;
#122 = DIRECTION ( 'NONE',  ( 0.000000000000000000, 0.000000000000000000, 1.000000000000000000 ) ) ;
#123 =( NAMED_UNIT ( * ) PLANE_ANGLE_UNIT ( ) SI_UNIT ( $, .RADIAN. ) );
#124 = ORIENTED_EDGE ( 'NONE', *, *, #5, .T. ) ;
#125 = ORIENTED_EDGE ( 'NONE', *, *, #28, .F. ) ;
#126 = MECHANICAL_CONTEXT ( 'NONE', #108, 'mechanical' ) ;
#127 = EDGE_CURVE ( 'NONE', #180, #31, #228, .T. ) ;
#128 = PERSON_AND_ORGANIZATION ( #185, #109 ) ;
#129 = EDGE_LOOP ( 'NONE', ( #51, #106 ) ) ;
#130 = PLANE ( 'NONE',  #213 ) ;
#131 = DIRECTION ( 'NONE',  ( 0.000000000000000000, 0.000000000000000000, 1.000000000000000000 ) ) ;
#132 = CALENDAR_DATE ( 2023, 13, 2 ) ;
#133 = DIRECTION ( 'NONE',  ( 0.000000000000000000, 0.000000000000000000, 1.000000000000000000 ) ) ;
#134 = LOCAL_TIME ( 17, 55, 33.00000000000000000, #56 ) ;
#135 = AXIS2_PLACEMENT_3D ( 'NONE', #82, #141, #43 ) ;
#136 = CARTESIAN_POINT ( 'NONE',  ( -1.000000000000000000, 0.000000000000000000, 125.0000000000000000 ) ) ;
#137 = APPROVAL_DATE_TIME ( #89, #118 ) ;
#138 = DIRECTION ( 'NONE',  ( -0.000000000000000000, -0.000000000000000000, -1.000000000000000000 ) ) ;
#139 = DIRECTION ( 'NONE',  ( 1.000000000000000000, 0.000000000000000000, 0.000000000000000000 ) ) ;
#140 = CIRCLE ( 'NONE', #239, 1.000000000000000000 ) ;
#141 = DIRECTION ( 'NONE',  ( 0.000000000000000000, 0.000000000000000000, 1.000000000000000000 ) ) ;
#142 = DIRECTION ( 'NONE',  ( 1.000000000000000000, 0.000000000000000000, 0.000000000000000000 ) ) ;
#143 = EDGE_LOOP ( 'NONE', ( #242, #124, #104, #85 ) ) ;
#144 = ORIENTED_EDGE ( 'NONE', *, *, #152, .F. ) ;
#145 = DIRECTION ( 'NONE',  ( 1.000000000000000000, 0.000000000000000000, 0.000000000000000000 ) ) ;
#146 = APPROVAL_STATUS ( 'not_yet_approved' ) ;
#147 = CARTESIAN_POINT ( 'NONE',  ( 0.000000000000000000, 0.000000000000000000, 2.000000000000000000 ) ) ;
#148 = DATE_AND_TIME ( #39, #103 ) ;
#149 = PERSON_AND_ORGANIZATION_ROLE ( 'classification_officer' ) ;
#150 =( GEOMETRIC_REPRESENTATION_CONTEXT ( 3 ) GLOBAL_UNCERTAINTY_ASSIGNED_CONTEXT ( ( #64 ) ) GLOBAL_UNIT_ASSIGNED_CONTEXT ( ( #69, #123, #49 ) ) REPRESENTATION_CONTEXT ( 'NONE', 'WORKASPACE' ) );
#151 = CC_DESIGN_PERSON_AND_ORGANIZATION_ASSIGNMENT ( #243, #149, ( #254 ) ) ;
#152 = EDGE_CURVE ( 'NONE', #180, #157, #95, .T. ) ;
#153 = CARTESIAN_POINT ( 'NONE',  ( 2.000000000000000000, 2.449293598294706414E-16, 2.000000000000000000 ) ) ;
#154 = CC_DESIGN_SECURITY_CLASSIFICATION ( #254, ( #172 ) ) ;
#155 = DIRECTION ( 'NONE',  ( 1.000000000000000000, 0.000000000000000000, 0.000000000000000000 ) ) ;
#156 = ORIENTED_EDGE ( 'NONE', *, *, #113, .T. ) ;
#157 = VERTEX_POINT ( 'NONE', #38 ) ;
#158 = MANIFOLD_SOLID_BREP ( 'Pøidat vysunutím3', #57 ) ;
#159 = CARTESIAN_POINT ( 'NONE',  ( 0.000000000000000000, 0.000000000000000000, 0.000000000000000000 ) ) ;
#160 = ORIENTED_EDGE ( 'NONE', *, *, #19, .F. ) ;
#161 = APPROVAL_ROLE ( '' ) ;
#162 = ADVANCED_FACE ( 'NONE', ( #116 ), #130, .T. ) ;
#163 = CC_DESIGN_DATE_AND_TIME_ASSIGNMENT ( #75, #183, ( #254 ) ) ;
#164 = PERSON_AND_ORGANIZATION_ROLE ( 'creator' ) ;
#165 = CIRCLE ( 'NONE', #83, 2.000000000000000000 ) ;
#166 = PERSON_AND_ORGANIZATION ( #185, #109 ) ;
#167 = FACE_OUTER_BOUND ( 'NONE', #84, .T. ) ;
#168 = COORDINATED_UNIVERSAL_TIME_OFFSET ( 1, 0, .AHEAD. ) ;
#169 = DIRECTION ( 'NONE',  ( -1.000000000000000000, 0.000000000000000000, 0.000000000000000000 ) ) ;
#170 = ADVANCED_FACE ( 'NONE', ( #36, #90 ), #74, .T. ) ;
#171 = LOCAL_TIME ( 17, 55, 33.00000000000000000, #53 ) ;
#172 = PRODUCT_DEFINITION_FORMATION_WITH_SPECIFIED_SOURCE ( 'LIBOVOLNÝ', '', #80, .NOT_KNOWN. ) ;
#173 = CARTESIAN_POINT ( 'NONE',  ( -2.000000000000000000, 0.000000000000000000, 2.000000000000000000 ) ) ;
#174 = CARTESIAN_POINT ( 'NONE',  ( 0.000000000000000000, 0.000000000000000000, 2.000000000000000000 ) ) ;
#175 = ADVANCED_FACE ( 'NONE', ( #167 ), #246, .T. ) ;
#176 = ORIENTED_EDGE ( 'NONE', *, *, #127, .T. ) ;
#177 = CARTESIAN_POINT ( 'NONE',  ( 0.000000000000000000, 0.000000000000000000, 0.000000000000000000 ) ) ;
#178 = ORIENTED_EDGE ( 'NONE', *, *, #113, .F. ) ;
#179 = EDGE_CURVE ( 'NONE', #157, #9, #140, .T. ) ;
#180 = VERTEX_POINT ( 'NONE', #231 ) ;
#181 = ORIENTED_EDGE ( 'NONE', *, *, #127, .F. ) ;
#182 = ORIENTED_EDGE ( 'NONE', *, *, #152, .T. ) ;
#183 = DATE_TIME_ROLE ( 'classification_date' ) ;
#184 = CARTESIAN_POINT ( 'NONE',  ( 0.000000000000000000, 0.000000000000000000, 2.000000000000000000 ) ) ;
#185 = PERSON ( 'NEURÈENÝ', 'NEURÈENÝ', 'NEURÈENÝ', ('NEURÈENÝ'), ('NEURÈENÝ'), ('NEURÈENÝ') ) ;
#186 = CALENDAR_DATE ( 2023, 13, 2 ) ;
#187 = DIRECTION ( 'NONE',  ( -0.000000000000000000, -0.000000000000000000, -1.000000000000000000 ) ) ;
#188 = APPROVAL_STATUS ( 'not_yet_approved' ) ;
#189 = DIRECTION ( 'NONE',  ( -0.000000000000000000, -0.000000000000000000, -1.000000000000000000 ) ) ;
#190 = DIRECTION ( 'NONE',  ( 1.000000000000000000, 0.000000000000000000, 0.000000000000000000 ) ) ;
#191 = LOCAL_TIME ( 17, 55, 33.00000000000000000, #168 ) ;
#192 = ADVANCED_FACE ( 'NONE', ( #252 ), #81, .F. ) ;
#193 = EDGE_CURVE ( 'NONE', #204, #26, #229, .T. ) ;
#194 = VECTOR ( 'NONE', #94, 1000.000000000000000 ) ;
#195 = DIRECTION ( 'NONE',  ( -1.000000000000000000, 0.000000000000000000, 0.000000000000000000 ) ) ;
#196 = PRODUCT_DEFINITION_SHAPE ( 'NONE', 'NONE',  #11 ) ;
#197 = ORIENTED_EDGE ( 'NONE', *, *, #248, .T. ) ;
#198 = CC_DESIGN_PERSON_AND_ORGANIZATION_ASSIGNMENT ( #210, #164, ( #172 ) ) ;
#199 = EDGE_LOOP ( 'NONE', ( #27, #176 ) ) ;
#200 = ORIENTED_EDGE ( 'NONE', *, *, #193, .T. ) ;
#201 = VERTEX_POINT ( 'NONE', #121 ) ;
#202 = PRODUCT_RELATED_PRODUCT_CATEGORY ( 'detail', '', ( #80 ) ) ;
#203 = AXIS2_PLACEMENT_3D ( 'NONE', #73, #207, #190 ) ;
#204 = VERTEX_POINT ( 'NONE', #153 ) ;
#205 = CIRCLE ( 'NONE', #230, 1.000000000000000000 ) ;
#206 = APPROVAL_ROLE ( '' ) ;
#207 = DIRECTION ( 'NONE',  ( 0.000000000000000000, 0.000000000000000000, 1.000000000000000000 ) ) ;
#208 = PERSON_AND_ORGANIZATION_ROLE ( 'creator' ) ;
#209 = CARTESIAN_POINT ( 'NONE',  ( 1.000000000000000000, 1.224646799147353207E-16, 125.0000000000000000 ) ) ;
#210 = PERSON_AND_ORGANIZATION ( #185, #109 ) ;
#211 = LINE ( 'NONE', #96, #194 ) ;
#212 = ADVANCED_FACE ( 'NONE', ( #232 ), #22, .T. ) ;
#213 = AXIS2_PLACEMENT_3D ( 'NONE', #227, #112, #78 ) ;
#214 = APPROVAL_ROLE ( '' ) ;
#215 = FACE_OUTER_BOUND ( 'NONE', #143, .T. ) ;
#216 = CC_DESIGN_DATE_AND_TIME_ASSIGNMENT ( #77, #14, ( #11 ) ) ;
#217 = DIRECTION ( 'NONE',  ( -1.000000000000000000, 0.000000000000000000, 0.000000000000000000 ) ) ;
#218 = DIRECTION ( 'NONE',  ( 0.000000000000000000, 0.000000000000000000, 1.000000000000000000 ) ) ;
#219 = EDGE_CURVE ( 'NONE', #26, #201, #119, .T. ) ;
#220 = DESIGN_CONTEXT ( 'detailed design', #86, 'design' ) ;
#221 = CARTESIAN_POINT ( 'NONE',  ( -1.000000000000000000, 0.000000000000000000, 2.000000000000000000 ) ) ;
#222 = ADVANCED_FACE ( 'NONE', ( #21 ), #97, .T. ) ;
#223 = CYLINDRICAL_SURFACE ( 'NONE', #114, 2.000000000000000000 ) ;
#224 = PERSON_AND_ORGANIZATION ( #185, #109 ) ;
#225 = CARTESIAN_POINT ( 'NONE',  ( 0.000000000000000000, 0.000000000000000000, 0.000000000000000000 ) ) ;
#226 = CC_DESIGN_PERSON_AND_ORGANIZATION_ASSIGNMENT ( #37, #241, ( #172 ) ) ;
#227 = CARTESIAN_POINT ( 'NONE',  ( 0.000000000000000000, 0.000000000000000000, 125.0000000000000000 ) ) ;
#228 = CIRCLE ( 'NONE', #76, 1.000000000000000000 ) ;
#229 = CIRCLE ( 'NONE', #24, 2.000000000000000000 ) ;
#230 = AXIS2_PLACEMENT_3D ( 'NONE', #174, #218, #142 ) ;
#231 = CARTESIAN_POINT ( 'NONE',  ( 1.000000000000000000, 1.224646799147353207E-16, 125.0000000000000000 ) ) ;
#232 = FACE_OUTER_BOUND ( 'NONE', #29, .T. ) ;
#233 = CARTESIAN_POINT ( 'NONE',  ( 0.000000000000000000, 0.000000000000000000, 125.0000000000000000 ) ) ;
#234 = VECTOR ( 'NONE', #189, 1000.000000000000000 ) ;
#235 = CC_DESIGN_APPROVAL ( #79, ( #11 ) ) ;
#236 = CC_DESIGN_PERSON_AND_ORGANIZATION_ASSIGNMENT ( #224, #208, ( #11 ) ) ;
#237 = CARTESIAN_POINT ( 'NONE',  ( 2.000000000000000000, 2.449293598294706414E-16, 0.000000000000000000 ) ) ;
#238 = EDGE_LOOP ( 'NONE', ( #181, #182, #7, #178 ) ) ;
#239 = AXIS2_PLACEMENT_3D ( 'NONE', #59, #122, #120 ) ;
#240 = EDGE_LOOP ( 'NONE', ( #107, #200 ) ) ;
#241 = PERSON_AND_ORGANIZATION_ROLE ( 'design_supplier' ) ;
#242 = ORIENTED_EDGE ( 'NONE', *, *, #193, .F. ) ;
#243 = PERSON_AND_ORGANIZATION ( #185, #109 ) ;
#244 = DIRECTION ( 'NONE',  ( -1.000000000000000000, 0.000000000000000000, 0.000000000000000000 ) ) ;
#245 = CC_DESIGN_PERSON_AND_ORGANIZATION_ASSIGNMENT ( #128, #30, ( #80 ) ) ;
#246 = CYLINDRICAL_SURFACE ( 'NONE', #63, 2.000000000000000000 ) ;
#247 = CALENDAR_DATE ( 2023, 13, 2 ) ;
#248 = EDGE_CURVE ( 'NONE', #9, #157, #205, .T. ) ;
#249 = COORDINATED_UNIVERSAL_TIME_OFFSET ( 1, 0, .AHEAD. ) ;
#250 = DIRECTION ( 'NONE',  ( 0.000000000000000000, 0.000000000000000000, 1.000000000000000000 ) ) ;
#251 = AXIS2_PLACEMENT_3D ( 'NONE', #233, #253, #195 ) ;
#252 = FACE_OUTER_BOUND ( 'NONE', #46, .T. ) ;
#253 = DIRECTION ( 'NONE',  ( -0.000000000000000000, -0.000000000000000000, -1.000000000000000000 ) ) ;
#254 = SECURITY_CLASSIFICATION ( '', '', #17 ) ;
#255 = CARTESIAN_POINT ( 'NONE',  ( 0.000000000000000000, 0.000000000000000000, 2.000000000000000000 ) ) ;
ENDSEC;
END-ISO-10303-21;
