ISO-10303-21;
HEADER;
FILE_DESCRIPTION (( 'STEP AP203' ),
    '1' );
FILE_NAME ('9b8f.STEP',
    '2023-02-13T13:53:11',
    ( '' ),
    ( '' ),
    'SwSTEP 2.0',
    'SolidWorks 2019',
    '' );
FILE_SCHEMA (( 'CONFIG_CONTROL_DESIGN' ));
ENDSEC;

DATA;
#1 = FACE_OUTER_BOUND ( 'NONE', #188, .T. ) ;
#2 = ADVANCED_BREP_SHAPE_REPRESENTATION ( '9b8f', ( #242, #84 ), #157 ) ;
#3 = EDGE_CURVE ( 'NONE', #55, #194, #4, .T. ) ;
#4 = CIRCLE ( 'NONE', #39, 7.000000000000000000 ) ;
#5 = CARTESIAN_POINT ( 'NONE',  ( 0.000000000000000000, 0.000000000000000000, 250.0000000000000000 ) ) ;
#6 = CARTESIAN_POINT ( 'NONE',  ( 0.000000000000000000, 0.000000000000000000, 5.000000000000000000 ) ) ;
#7 = DIRECTION ( 'NONE',  ( -0.000000000000000000, -0.000000000000000000, -1.000000000000000000 ) ) ;
#8 = CC_DESIGN_PERSON_AND_ORGANIZATION_ASSIGNMENT ( #137, #195, ( #197 ) ) ;
#9 = ORIENTED_EDGE ( 'NONE', *, *, #3, .T. ) ;
#10 = CARTESIAN_POINT ( 'NONE',  ( 0.000000000000000000, 0.000000000000000000, 250.0000000000000000 ) ) ;
#11 = DATE_AND_TIME ( #110, #227 ) ;
#12 = ORIENTED_EDGE ( 'NONE', *, *, #213, .T. ) ;
#13 = APPROVAL_STATUS ( 'not_yet_approved' ) ;
#14 = VECTOR ( 'NONE', #216, 1000.000000000000000 ) ;
#15 = CC_DESIGN_APPROVAL ( #77, ( #241 ) ) ;
#16 = DIRECTION ( 'NONE',  ( 0.000000000000000000, 0.000000000000000000, 1.000000000000000000 ) ) ;
#17 = CARTESIAN_POINT ( 'NONE',  ( 0.000000000000000000, 0.000000000000000000, 5.000000000000000000 ) ) ;
#18 = EDGE_CURVE ( 'NONE', #49, #166, #82, .T. ) ;
#19 = LOCAL_TIME ( 14, 53, 11.00000000000000000, #86 ) ;
#20 = PRODUCT ( '9b8f', '9b8f', '', ( #106 ) ) ;
#21 = CC_DESIGN_PERSON_AND_ORGANIZATION_ASSIGNMENT ( #250, #72, ( #241 ) ) ;
#22 = DIRECTION ( 'NONE',  ( -1.000000000000000000, 0.000000000000000000, 0.000000000000000000 ) ) ;
#23 = UNCERTAINTY_MEASURE_WITH_UNIT (LENGTH_MEASURE( 1.000000000000000082E-05 ), #164, 'distance_accuracy_value', 'NONE');
#24 = VECTOR ( 'NONE', #7, 1000.000000000000000 ) ;
#25 = LINE ( 'NONE', #100, #24 ) ;
#26 = CIRCLE ( 'NONE', #145, 4.250000000000000000 ) ;
#27 = CARTESIAN_POINT ( 'NONE',  ( 0.000000000000000000, 0.000000000000000000, 0.000000000000000000 ) ) ;
#28 = APPROVAL_PERSON_ORGANIZATION ( #140, #127, #252 ) ;
#29 = ORIENTED_EDGE ( 'NONE', *, *, #231, .T. ) ;
#30 = DIRECTION ( 'NONE',  ( 1.000000000000000000, 0.000000000000000000, -0.000000000000000000 ) ) ;
#31 = ORIENTED_EDGE ( 'NONE', *, *, #158, .T. ) ;
#32 = ORIENTED_EDGE ( 'NONE', *, *, #231, .F. ) ;
#33 = COORDINATED_UNIVERSAL_TIME_OFFSET ( 1, 0, .AHEAD. ) ;
#34 = DIRECTION ( 'NONE',  ( -1.000000000000000000, 0.000000000000000000, 0.000000000000000000 ) ) ;
#35 = CIRCLE ( 'NONE', #171, 4.250000000000000000 ) ;
#36 = APPROVAL_ROLE ( '' ) ;
#37 = EDGE_LOOP ( 'NONE', ( #225, #243, #111, #9 ) ) ;
#38 = PERSON_AND_ORGANIZATION_ROLE ( 'creator' ) ;
#39 = AXIS2_PLACEMENT_3D ( 'NONE', #150, #161, #226 ) ;
#40 = CYLINDRICAL_SURFACE ( 'NONE', #224, 4.250000000000000000 ) ;
#41 = CALENDAR_DATE ( 2023, 13, 2 ) ;
#42 = LOCAL_TIME ( 14, 53, 11.00000000000000000, #234 ) ;
#43 = LOCAL_TIME ( 14, 53, 11.00000000000000000, #33 ) ;
#44 = DIRECTION ( 'NONE',  ( -0.000000000000000000, -0.000000000000000000, -1.000000000000000000 ) ) ;
#45 = ADVANCED_FACE ( 'NONE', ( #105 ), #132, .T. ) ;
#46 = CIRCLE ( 'NONE', #177, 4.250000000000000000 ) ;
#47 = ORIENTED_EDGE ( 'NONE', *, *, #144, .T. ) ;
#48 = CARTESIAN_POINT ( 'NONE',  ( -4.250000000000000000, 0.000000000000000000, 250.0000000000000000 ) ) ;
#49 = VERTEX_POINT ( 'NONE', #109 ) ;
#50 = COORDINATED_UNIVERSAL_TIME_OFFSET ( 1, 0, .AHEAD. ) ;
#51 = CC_DESIGN_PERSON_AND_ORGANIZATION_ASSIGNMENT ( #233, #38, ( #241 ) ) ;
#52 = ORIENTED_EDGE ( 'NONE', *, *, #158, .F. ) ;
#53 = APPLICATION_PROTOCOL_DEFINITION ( 'international standard', 'config_control_design', 1994, #185 ) ;
#54 = CC_DESIGN_APPROVAL ( #57, ( #197 ) ) ;
#55 = VERTEX_POINT ( 'NONE', #152 ) ;
#56 = PERSON_AND_ORGANIZATION_ROLE ( 'design_owner' ) ;
#57 = APPROVAL ( #191, 'NEURÈENÝ' ) ;
#58 = PLANE ( 'NONE',  #156 ) ;
#59 = DATE_AND_TIME ( #41, #42 ) ;
#60 = DIRECTION ( 'NONE',  ( 1.000000000000000000, 0.000000000000000000, 0.000000000000000000 ) ) ;
#61 = DIRECTION ( 'NONE',  ( 1.000000000000000000, 0.000000000000000000, 0.000000000000000000 ) ) ;
#62 = EDGE_CURVE ( 'NONE', #79, #55, #91, .T. ) ;
#63 = EDGE_LOOP ( 'NONE', ( #249, #68, #107, #136 ) ) ;
#64 = ORIENTED_EDGE ( 'NONE', *, *, #81, .F. ) ;
#65 = PERSON_AND_ORGANIZATION ( #131, #78 ) ;
#66 = ORIENTED_EDGE ( 'NONE', *, *, #184, .T. ) ;
#67 = APPROVAL_ROLE ( '' ) ;
#68 = ORIENTED_EDGE ( 'NONE', *, *, #184, .F. ) ;
#69 = PRODUCT_DEFINITION_SHAPE ( 'NONE', 'NONE',  #197 ) ;
#70 = DATE_TIME_ROLE ( 'creation_date' ) ;
#71 = ADVANCED_FACE ( 'NONE', ( #155 ), #238, .T. ) ;
#72 = PERSON_AND_ORGANIZATION_ROLE ( 'design_supplier' ) ;
#73 = DIRECTION ( 'NONE',  ( 1.000000000000000000, 0.000000000000000000, -0.000000000000000000 ) ) ;
#74 = CARTESIAN_POINT ( 'NONE',  ( 0.000000000000000000, 0.000000000000000000, 5.000000000000000000 ) ) ;
#75 = VECTOR ( 'NONE', #229, 1000.000000000000000 ) ;
#76 = ADVANCED_FACE ( 'NONE', ( #237, #1 ), #58, .T. ) ;
#77 = APPROVAL ( #13, 'NEURÈENÝ' ) ;
#78 = ORGANIZATION ( 'NEURÈENÝ', 'NEURÈENÝ', '' ) ;
#79 = VERTEX_POINT ( 'NONE', #139 ) ;
#80 = AXIS2_PLACEMENT_3D ( 'NONE', #251, #117, #73 ) ;
#81 = EDGE_CURVE ( 'NONE', #163, #79, #207, .T. ) ;
#82 = LINE ( 'NONE', #48, #75 ) ;
#83 = CALENDAR_DATE ( 2023, 13, 2 ) ;
#84 = AXIS2_PLACEMENT_3D ( 'NONE', #112, #230, #228 ) ;
#85 = ORIENTED_EDGE ( 'NONE', *, *, #18, .F. ) ;
#86 = COORDINATED_UNIVERSAL_TIME_OFFSET ( 1, 0, .AHEAD. ) ;
#87 = ADVANCED_FACE ( 'NONE', ( #143 ), #40, .T. ) ;
#88 = CARTESIAN_POINT ( 'NONE',  ( -7.000000000000000000, 0.000000000000000000, 5.000000000000000000 ) ) ;
#89 = COORDINATED_UNIVERSAL_TIME_OFFSET ( 1, 0, .AHEAD. ) ;
#90 = AXIS2_PLACEMENT_3D ( 'NONE', #27, #102, #30 ) ;
#91 = LINE ( 'NONE', #88, #14 ) ;
#92 = APPROVAL_DATE_TIME ( #59, #127 ) ;
#93 = DIRECTION ( 'NONE',  ( 1.000000000000000000, 0.000000000000000000, 0.000000000000000000 ) ) ;
#94 = AXIS2_PLACEMENT_3D ( 'NONE', #74, #154, #200 ) ;
#95 = DIRECTION ( 'NONE',  ( 0.000000000000000000, 0.000000000000000000, 1.000000000000000000 ) ) ;
#96 = CARTESIAN_POINT ( 'NONE',  ( 4.250000000000000000, 5.204748896376250699E-16, 250.0000000000000000 ) ) ;
#97 = CC_DESIGN_PERSON_AND_ORGANIZATION_ASSIGNMENT ( #108, #56, ( #20 ) ) ;
#98 = CARTESIAN_POINT ( 'NONE',  ( 4.250000000000000000, 5.204748896376250699E-16, 250.0000000000000000 ) ) ;
#99 = CARTESIAN_POINT ( 'NONE',  ( 0.000000000000000000, 0.000000000000000000, 5.000000000000000000 ) ) ;
#100 = CARTESIAN_POINT ( 'NONE',  ( 7.000000000000000000, 8.572527594031473190E-16, 5.000000000000000000 ) ) ;
#101 = SECURITY_CLASSIFICATION ( '', '', #149 ) ;
#102 = DIRECTION ( 'NONE',  ( 0.000000000000000000, 0.000000000000000000, 1.000000000000000000 ) ) ;
#103 = ORIENTED_EDGE ( 'NONE', *, *, #3, .F. ) ;
#104 = EDGE_CURVE ( 'NONE', #166, #189, #46, .T. ) ;
#105 = FACE_OUTER_BOUND ( 'NONE', #63, .T. ) ;
#106 = MECHANICAL_CONTEXT ( 'NONE', #118, 'mechanical' ) ;
#107 = ORIENTED_EDGE ( 'NONE', *, *, #18, .T. ) ;
#108 = PERSON_AND_ORGANIZATION ( #131, #78 ) ;
#109 = CARTESIAN_POINT ( 'NONE',  ( -4.250000000000000000, 0.000000000000000000, 250.0000000000000000 ) ) ;
#110 = CALENDAR_DATE ( 2023, 13, 2 ) ;
#111 = ORIENTED_EDGE ( 'NONE', *, *, #62, .T. ) ;
#112 = CARTESIAN_POINT ( 'NONE',  ( 0.000000000000000000, 0.000000000000000000, 0.000000000000000000 ) ) ;
#113 = DATE_TIME_ROLE ( 'classification_date' ) ;
#114 = DIRECTION ( 'NONE',  ( -1.000000000000000000, 0.000000000000000000, 0.000000000000000000 ) ) ;
#115 = SHAPE_DEFINITION_REPRESENTATION ( #69, #2 ) ;
#116 = DIRECTION ( 'NONE',  ( -0.000000000000000000, -0.000000000000000000, -1.000000000000000000 ) ) ;
#117 = DIRECTION ( 'NONE',  ( 0.000000000000000000, 0.000000000000000000, 1.000000000000000000 ) ) ;
#118 = APPLICATION_CONTEXT ( 'configuration controlled 3d designs of mechanical parts and assemblies' ) ;
#119 = ADVANCED_FACE ( 'NONE', ( #173 ), #254, .T. ) ;
#120 = ADVANCED_FACE ( 'NONE', ( #219 ), #255, .T. ) ;
#121 = AXIS2_PLACEMENT_3D ( 'NONE', #218, #175, #221 ) ;
#122 = CARTESIAN_POINT ( 'NONE',  ( 7.000000000000000000, 8.572527594031473190E-16, 5.000000000000000000 ) ) ;
#123 = CARTESIAN_POINT ( 'NONE',  ( 7.000000000000000000, 8.572527594031473190E-16, 0.000000000000000000 ) ) ;
#124 = AXIS2_PLACEMENT_3D ( 'NONE', #6, #44, #22 ) ;
#125 = ORIENTED_EDGE ( 'NONE', *, *, #147, .T. ) ;
#126 = DIRECTION ( 'NONE',  ( 0.000000000000000000, 0.000000000000000000, 1.000000000000000000 ) ) ;
#127 = APPROVAL ( #199, 'NEURÈENÝ' ) ;
#128 = VERTEX_POINT ( 'NONE', #96 ) ;
#129 = PERSON_AND_ORGANIZATION_ROLE ( 'classification_officer' ) ;
#130 = CIRCLE ( 'NONE', #203, 7.000000000000000000 ) ;
#131 = PERSON ( 'NEURÈENÝ', 'NEURÈENÝ', 'NEURÈENÝ', ('NEURÈENÝ'), ('NEURÈENÝ'), ('NEURÈENÝ') ) ;
#132 = CYLINDRICAL_SURFACE ( 'NONE', #190, 4.250000000000000000 ) ;
#133 = PERSON_AND_ORGANIZATION ( #131, #78 ) ;
#134 = APPROVAL_PERSON_ORGANIZATION ( #246, #77, #67 ) ;
#135 = CC_DESIGN_PERSON_AND_ORGANIZATION_ASSIGNMENT ( #65, #129, ( #101 ) ) ;
#136 = ORIENTED_EDGE ( 'NONE', *, *, #104, .T. ) ;
#137 = PERSON_AND_ORGANIZATION ( #131, #78 ) ;
#138 = CALENDAR_DATE ( 2023, 13, 2 ) ;
#139 = CARTESIAN_POINT ( 'NONE',  ( -7.000000000000000000, 0.000000000000000000, 5.000000000000000000 ) ) ;
#140 = PERSON_AND_ORGANIZATION ( #131, #78 ) ;
#141 = AXIS2_PLACEMENT_3D ( 'NONE', #204, #253, #159 ) ;
#142 = CARTESIAN_POINT ( 'NONE',  ( 0.000000000000000000, 0.000000000000000000, 250.0000000000000000 ) ) ;
#143 = FACE_OUTER_BOUND ( 'NONE', #206, .T. ) ;
#144 = EDGE_CURVE ( 'NONE', #79, #163, #130, .T. ) ;
#145 = AXIS2_PLACEMENT_3D ( 'NONE', #180, #176, #60 ) ;
#146 = DIRECTION ( 'NONE',  ( 1.000000000000000000, 0.000000000000000000, 0.000000000000000000 ) ) ;
#147 = EDGE_CURVE ( 'NONE', #128, #189, #183, .T. ) ;
#148 = EDGE_LOOP ( 'NONE', ( #66, #29 ) ) ;
#149 = SECURITY_CLASSIFICATION_LEVEL ( 'unclassified' ) ;
#150 = CARTESIAN_POINT ( 'NONE',  ( 0.000000000000000000, 0.000000000000000000, 0.000000000000000000 ) ) ;
#151 = DATE_AND_TIME ( #169, #19 ) ;
#152 = CARTESIAN_POINT ( 'NONE',  ( -7.000000000000000000, 0.000000000000000000, 0.000000000000000000 ) ) ;
#153 = DIRECTION ( 'NONE',  ( 1.000000000000000000, 0.000000000000000000, -0.000000000000000000 ) ) ;
#154 = DIRECTION ( 'NONE',  ( -0.000000000000000000, -0.000000000000000000, -1.000000000000000000 ) ) ;
#155 = FACE_OUTER_BOUND ( 'NONE', #148, .T. ) ;
#156 = AXIS2_PLACEMENT_3D ( 'NONE', #17, #95, #153 ) ;
#157 =( GEOMETRIC_REPRESENTATION_CONTEXT ( 3 ) GLOBAL_UNCERTAINTY_ASSIGNED_CONTEXT ( ( #23 ) ) GLOBAL_UNIT_ASSIGNED_CONTEXT ( ( #164, #205, #167 ) ) REPRESENTATION_CONTEXT ( 'NONE', 'WORKASPACE' ) );
#158 = EDGE_CURVE ( 'NONE', #189, #166, #26, .T. ) ;
#159 = DIRECTION ( 'NONE',  ( 1.000000000000000000, 0.000000000000000000, 0.000000000000000000 ) ) ;
#160 = EDGE_LOOP ( 'NONE', ( #64, #12, #232, #202 ) ) ;
#161 = DIRECTION ( 'NONE',  ( 0.000000000000000000, 0.000000000000000000, 1.000000000000000000 ) ) ;
#162 = DATE_AND_TIME ( #83, #210 ) ;
#163 = VERTEX_POINT ( 'NONE', #122 ) ;
#164 =( LENGTH_UNIT ( ) NAMED_UNIT ( * ) SI_UNIT ( .MILLI., .METRE. ) );
#165 = CIRCLE ( 'NONE', #174, 7.000000000000000000 ) ;
#166 = VERTEX_POINT ( 'NONE', #201 ) ;
#167 =( NAMED_UNIT ( * ) SI_UNIT ( $, .STERADIAN. ) SOLID_ANGLE_UNIT ( ) );
#168 = EDGE_LOOP ( 'NONE', ( #103, #182 ) ) ;
#169 = CALENDAR_DATE ( 2023, 13, 2 ) ;
#170 = CLOSED_SHELL ( 'NONE', ( #87, #120, #119, #76, #239, #45, #71 ) ) ;
#171 = AXIS2_PLACEMENT_3D ( 'NONE', #5, #240, #61 ) ;
#172 = CC_DESIGN_DATE_AND_TIME_ASSIGNMENT ( #162, #70, ( #197 ) ) ;
#173 = FACE_OUTER_BOUND ( 'NONE', #37, .T. ) ;
#174 = AXIS2_PLACEMENT_3D ( 'NONE', #187, #126, #196 ) ;
#175 = DIRECTION ( 'NONE',  ( 0.000000000000000000, 0.000000000000000000, 1.000000000000000000 ) ) ;
#176 = DIRECTION ( 'NONE',  ( 0.000000000000000000, 0.000000000000000000, 1.000000000000000000 ) ) ;
#177 = AXIS2_PLACEMENT_3D ( 'NONE', #198, #16, #93 ) ;
#178 = DIRECTION ( 'NONE',  ( 0.000000000000000000, 0.000000000000000000, 1.000000000000000000 ) ) ;
#179 = DESIGN_CONTEXT ( 'detailed design', #185, 'design' ) ;
#180 = CARTESIAN_POINT ( 'NONE',  ( 0.000000000000000000, 0.000000000000000000, 5.000000000000000000 ) ) ;
#181 = VECTOR ( 'NONE', #222, 1000.000000000000000 ) ;
#182 = ORIENTED_EDGE ( 'NONE', *, *, #248, .F. ) ;
#183 = LINE ( 'NONE', #98, #181 ) ;
#184 = EDGE_CURVE ( 'NONE', #49, #128, #35, .T. ) ;
#185 = APPLICATION_CONTEXT ( 'configuration controlled 3d designs of mechanical parts and assemblies' ) ;
#186 = PLANE ( 'NONE',  #90 ) ;
#187 = CARTESIAN_POINT ( 'NONE',  ( 0.000000000000000000, 0.000000000000000000, 0.000000000000000000 ) ) ;
#188 = EDGE_LOOP ( 'NONE', ( #47, #214 ) ) ;
#189 = VERTEX_POINT ( 'NONE', #223 ) ;
#190 = AXIS2_PLACEMENT_3D ( 'NONE', #10, #209, #34 ) ;
#191 = APPROVAL_STATUS ( 'not_yet_approved' ) ;
#192 = ORIENTED_EDGE ( 'NONE', *, *, #104, .F. ) ;
#193 = CC_DESIGN_SECURITY_CLASSIFICATION ( #101, ( #241 ) ) ;
#194 = VERTEX_POINT ( 'NONE', #123 ) ;
#195 = PERSON_AND_ORGANIZATION_ROLE ( 'creator' ) ;
#196 = DIRECTION ( 'NONE',  ( 1.000000000000000000, 0.000000000000000000, 0.000000000000000000 ) ) ;
#197 = PRODUCT_DEFINITION ( 'NEZNÁMÝ', '', #241, #179 ) ;
#198 = CARTESIAN_POINT ( 'NONE',  ( 0.000000000000000000, 0.000000000000000000, 5.000000000000000000 ) ) ;
#199 = APPROVAL_STATUS ( 'not_yet_approved' ) ;
#200 = DIRECTION ( 'NONE',  ( -1.000000000000000000, 0.000000000000000000, 0.000000000000000000 ) ) ;
#201 = CARTESIAN_POINT ( 'NONE',  ( -4.250000000000000000, 0.000000000000000000, 5.000000000000000000 ) ) ;
#202 = ORIENTED_EDGE ( 'NONE', *, *, #62, .F. ) ;
#203 = AXIS2_PLACEMENT_3D ( 'NONE', #99, #178, #146 ) ;
#204 = CARTESIAN_POINT ( 'NONE',  ( 0.000000000000000000, 0.000000000000000000, 250.0000000000000000 ) ) ;
#205 =( NAMED_UNIT ( * ) PLANE_ANGLE_UNIT ( ) SI_UNIT ( $, .RADIAN. ) );
#206 = EDGE_LOOP ( 'NONE', ( #32, #125, #31, #85 ) ) ;
#207 = CIRCLE ( 'NONE', #121, 7.000000000000000000 ) ;
#208 = APPROVAL_DATE_TIME ( #11, #57 ) ;
#209 = DIRECTION ( 'NONE',  ( -0.000000000000000000, -0.000000000000000000, -1.000000000000000000 ) ) ;
#210 = LOCAL_TIME ( 14, 53, 11.00000000000000000, #50 ) ;
#211 = APPLICATION_PROTOCOL_DEFINITION ( 'international standard', 'config_control_design', 1994, #118 ) ;
#212 = CC_DESIGN_APPROVAL ( #127, ( #101 ) ) ;
#213 = EDGE_CURVE ( 'NONE', #163, #194, #25, .T. ) ;
#214 = ORIENTED_EDGE ( 'NONE', *, *, #81, .T. ) ;
#215 = APPROVAL_DATE_TIME ( #151, #77 ) ;
#216 = DIRECTION ( 'NONE',  ( -0.000000000000000000, -0.000000000000000000, -1.000000000000000000 ) ) ;
#217 = DATE_AND_TIME ( #138, #43 ) ;
#218 = CARTESIAN_POINT ( 'NONE',  ( 0.000000000000000000, 0.000000000000000000, 5.000000000000000000 ) ) ;
#219 = FACE_OUTER_BOUND ( 'NONE', #160, .T. ) ;
#220 = CC_DESIGN_DATE_AND_TIME_ASSIGNMENT ( #217, #113, ( #101 ) ) ;
#221 = DIRECTION ( 'NONE',  ( 1.000000000000000000, 0.000000000000000000, 0.000000000000000000 ) ) ;
#222 = DIRECTION ( 'NONE',  ( -0.000000000000000000, -0.000000000000000000, -1.000000000000000000 ) ) ;
#223 = CARTESIAN_POINT ( 'NONE',  ( 4.250000000000000000, 5.204748896376250699E-16, 5.000000000000000000 ) ) ;
#224 = AXIS2_PLACEMENT_3D ( 'NONE', #142, #116, #114 ) ;
#225 = ORIENTED_EDGE ( 'NONE', *, *, #213, .F. ) ;
#226 = DIRECTION ( 'NONE',  ( 1.000000000000000000, 0.000000000000000000, 0.000000000000000000 ) ) ;
#227 = LOCAL_TIME ( 14, 53, 11.00000000000000000, #89 ) ;
#228 = DIRECTION ( 'NONE',  ( 1.000000000000000000, 0.000000000000000000, 0.000000000000000000 ) ) ;
#229 = DIRECTION ( 'NONE',  ( -0.000000000000000000, -0.000000000000000000, -1.000000000000000000 ) ) ;
#230 = DIRECTION ( 'NONE',  ( 0.000000000000000000, 0.000000000000000000, 1.000000000000000000 ) ) ;
#231 = EDGE_CURVE ( 'NONE', #128, #49, #244, .T. ) ;
#232 = ORIENTED_EDGE ( 'NONE', *, *, #248, .T. ) ;
#233 = PERSON_AND_ORGANIZATION ( #131, #78 ) ;
#234 = COORDINATED_UNIVERSAL_TIME_OFFSET ( 1, 0, .AHEAD. ) ;
#235 = FACE_OUTER_BOUND ( 'NONE', #168, .T. ) ;
#236 = APPROVAL_PERSON_ORGANIZATION ( #133, #57, #36 ) ;
#237 = FACE_BOUND ( 'NONE', #247, .T. ) ;
#238 = PLANE ( 'NONE',  #80 ) ;
#239 = ADVANCED_FACE ( 'NONE', ( #235 ), #186, .F. ) ;
#240 = DIRECTION ( 'NONE',  ( 0.000000000000000000, 0.000000000000000000, 1.000000000000000000 ) ) ;
#241 = PRODUCT_DEFINITION_FORMATION_WITH_SPECIFIED_SOURCE ( 'LIBOVOLNÝ', '', #20, .NOT_KNOWN. ) ;
#242 = MANIFOLD_SOLID_BREP ( 'Pøidat vysunutím3', #170 ) ;
#243 = ORIENTED_EDGE ( 'NONE', *, *, #144, .F. ) ;
#244 = CIRCLE ( 'NONE', #141, 4.250000000000000000 ) ;
#245 = PRODUCT_RELATED_PRODUCT_CATEGORY ( 'detail', '', ( #20 ) ) ;
#246 = PERSON_AND_ORGANIZATION ( #131, #78 ) ;
#247 = EDGE_LOOP ( 'NONE', ( #192, #52 ) ) ;
#248 = EDGE_CURVE ( 'NONE', #194, #55, #165, .T. ) ;
#249 = ORIENTED_EDGE ( 'NONE', *, *, #147, .F. ) ;
#250 = PERSON_AND_ORGANIZATION ( #131, #78 ) ;
#251 = CARTESIAN_POINT ( 'NONE',  ( 0.000000000000000000, 0.000000000000000000, 250.0000000000000000 ) ) ;
#252 = APPROVAL_ROLE ( '' ) ;
#253 = DIRECTION ( 'NONE',  ( 0.000000000000000000, 0.000000000000000000, 1.000000000000000000 ) ) ;
#254 = CYLINDRICAL_SURFACE ( 'NONE', #94, 7.000000000000000000 ) ;
#255 = CYLINDRICAL_SURFACE ( 'NONE', #124, 7.000000000000000000 ) ;
ENDSEC;
END-ISO-10303-21;
