ISO-10303-21;
HEADER;
FILE_DESCRIPTION (( 'STEP AP203' ),
    '1' );
FILE_NAME ('a1c8.STEP',
    '2023-02-13T12:25:21',
    ( '' ),
    ( '' ),
    'SwSTEP 2.0',
    'SolidWorks 2019',
    '' );
FILE_SCHEMA (( 'CONFIG_CONTROL_DESIGN' ));
ENDSEC;

DATA;
#1 = LOCAL_TIME ( 13, 25, 21.00000000000000000, #82 ) ;
#2 = ORIENTED_EDGE ( 'NONE', *, *, #55, .T. ) ;
#3 = ORIENTED_EDGE ( 'NONE', *, *, #13, .T. ) ;
#4 = DIRECTION ( 'NONE',  ( 1.000000000000000000, 0.000000000000000000, -0.000000000000000000 ) ) ;
#5 = PERSON_AND_ORGANIZATION_ROLE ( 'creator' ) ;
#6 = AXIS2_PLACEMENT_3D ( 'NONE', #70, #117, #192 ) ;
#7 = ORIENTED_EDGE ( 'NONE', *, *, #13, .F. ) ;
#8 = EDGE_CURVE ( 'NONE', #146, #229, #202, .T. ) ;
#9 = APPROVAL_ROLE ( '' ) ;
#10 = CARTESIAN_POINT ( 'NONE',  ( 0.000000000000000000, 0.000000000000000000, 0.000000000000000000 ) ) ;
#11 = COORDINATED_UNIVERSAL_TIME_OFFSET ( 1, 0, .AHEAD. ) ;
#12 = DIRECTION ( 'NONE',  ( 0.000000000000000000, 0.000000000000000000, 1.000000000000000000 ) ) ;
#13 = EDGE_CURVE ( 'NONE', #229, #146, #62, .T. ) ;
#14 = DIRECTION ( 'NONE',  ( -1.000000000000000000, 0.000000000000000000, 0.000000000000000000 ) ) ;
#15 = ORIENTED_EDGE ( 'NONE', *, *, #144, .F. ) ;
#16 = DIRECTION ( 'NONE',  ( 1.000000000000000000, 0.000000000000000000, 0.000000000000000000 ) ) ;
#17 = LINE ( 'NONE', #80, #115 ) ;
#18 = PERSON_AND_ORGANIZATION_ROLE ( 'design_supplier' ) ;
#19 = DIRECTION ( 'NONE',  ( -1.000000000000000000, 0.000000000000000000, 0.000000000000000000 ) ) ;
#20 = CARTESIAN_POINT ( 'NONE',  ( 6.000000000000000888, 7.347880794884120722E-16, 200.0000000000000000 ) ) ;
#21 = CC_DESIGN_PERSON_AND_ORGANIZATION_ASSIGNMENT ( #222, #209, ( #36 ) ) ;
#22 = DIRECTION ( 'NONE',  ( 1.000000000000000000, 0.000000000000000000, 0.000000000000000000 ) ) ;
#23 = CARTESIAN_POINT ( 'NONE',  ( 6.000000000000000888, 7.347880794884120722E-16, 200.0000000000000000 ) ) ;
#24 = ADVANCED_FACE ( 'NONE', ( #216 ), #200, .F. ) ;
#25 = COORDINATED_UNIVERSAL_TIME_OFFSET ( 1, 0, .AHEAD. ) ;
#26 = DIRECTION ( 'NONE',  ( 0.000000000000000000, 0.000000000000000000, 1.000000000000000000 ) ) ;
#27 = VERTEX_POINT ( 'NONE', #20 ) ;
#28 = DATE_TIME_ROLE ( 'classification_date' ) ;
#29 = APPROVAL_STATUS ( 'not_yet_approved' ) ;
#30 = APPROVAL ( #29, 'NEURÈENÝ' ) ;
#31 = VECTOR ( 'NONE', #140, 1000.000000000000000 ) ;
#32 = APPROVAL_PERSON_ORGANIZATION ( #38, #61, #9 ) ;
#33 = AXIS2_PLACEMENT_3D ( 'NONE', #10, #164, #245 ) ;
#34 = PERSON_AND_ORGANIZATION_ROLE ( 'creator' ) ;
#35 = DIRECTION ( 'NONE',  ( 0.000000000000000000, 0.000000000000000000, 1.000000000000000000 ) ) ;
#36 = PRODUCT ( 'a1c8', 'a1c8', '', ( #157 ) ) ;
#37 =( LENGTH_UNIT ( ) NAMED_UNIT ( * ) SI_UNIT ( .MILLI., .METRE. ) );
#38 = PERSON_AND_ORGANIZATION ( #105, #143 ) ;
#39 = VECTOR ( 'NONE', #255, 1000.000000000000000 ) ;
#40 = AXIS2_PLACEMENT_3D ( 'NONE', #215, #35, #16 ) ;
#41 = PERSON_AND_ORGANIZATION ( #105, #143 ) ;
#42 = DIRECTION ( 'NONE',  ( 1.000000000000000000, 0.000000000000000000, 0.000000000000000000 ) ) ;
#43 = EDGE_LOOP ( 'NONE', ( #232, #212, #107, #3 ) ) ;
#44 = ADVANCED_BREP_SHAPE_REPRESENTATION ( 'a1c8', ( #150, #224 ), #122 ) ;
#45 = CARTESIAN_POINT ( 'NONE',  ( 0.000000000000000000, 0.000000000000000000, 200.0000000000000000 ) ) ;
#46 = EDGE_LOOP ( 'NONE', ( #72, #162, #132, #163 ) ) ;
#47 = FACE_OUTER_BOUND ( 'NONE', #149, .T. ) ;
#48 = DIRECTION ( 'NONE',  ( 1.000000000000000000, 0.000000000000000000, 0.000000000000000000 ) ) ;
#49 = EDGE_CURVE ( 'NONE', #205, #27, #58, .T. ) ;
#50 = PRODUCT_DEFINITION_SHAPE ( 'NONE', 'NONE',  #225 ) ;
#51 = DIRECTION ( 'NONE',  ( 1.000000000000000000, 0.000000000000000000, 0.000000000000000000 ) ) ;
#52 = ORIENTED_EDGE ( 'NONE', *, *, #59, .T. ) ;
#53 = PERSON_AND_ORGANIZATION ( #105, #143 ) ;
#54 = PERSON_AND_ORGANIZATION ( #105, #143 ) ;
#55 = EDGE_CURVE ( 'NONE', #86, #84, #121, .T. ) ;
#56 = CARTESIAN_POINT ( 'NONE',  ( 0.000000000000000000, 0.000000000000000000, 7.000000000000000000 ) ) ;
#57 = CLOSED_SHELL ( 'NONE', ( #119, #97, #67, #185, #24, #102, #190 ) ) ;
#58 = CIRCLE ( 'NONE', #101, 6.000000000000000888 ) ;
#59 = EDGE_CURVE ( 'NONE', #27, #228, #106, .T. ) ;
#60 = CALENDAR_DATE ( 2023, 13, 2 ) ;
#61 = APPROVAL ( #138, 'NEURÈENÝ' ) ;
#62 = CIRCLE ( 'NONE', #33, 9.000000000000000000 ) ;
#63 = DIRECTION ( 'NONE',  ( 0.000000000000000000, 0.000000000000000000, 1.000000000000000000 ) ) ;
#64 = CARTESIAN_POINT ( 'NONE',  ( 0.000000000000000000, 0.000000000000000000, 7.000000000000000000 ) ) ;
#65 = CARTESIAN_POINT ( 'NONE',  ( -6.000000000000000888, 0.000000000000000000, 200.0000000000000000 ) ) ;
#66 = APPROVAL_DATE_TIME ( #94, #61 ) ;
#67 = ADVANCED_FACE ( 'NONE', ( #241 ), #243, .T. ) ;
#68 = DATE_AND_TIME ( #165, #156 ) ;
#69 = CARTESIAN_POINT ( 'NONE',  ( -9.000000000000000000, 0.000000000000000000, 0.000000000000000000 ) ) ;
#70 = CARTESIAN_POINT ( 'NONE',  ( 0.000000000000000000, 0.000000000000000000, 7.000000000000000000 ) ) ;
#71 = CARTESIAN_POINT ( 'NONE',  ( 0.000000000000000000, 0.000000000000000000, 7.000000000000000000 ) ) ;
#72 = ORIENTED_EDGE ( 'NONE', *, *, #59, .F. ) ;
#73 = SECURITY_CLASSIFICATION_LEVEL ( 'unclassified' ) ;
#74 = CIRCLE ( 'NONE', #112, 6.000000000000000888 ) ;
#75 = DIRECTION ( 'NONE',  ( -0.000000000000000000, -0.000000000000000000, -1.000000000000000000 ) ) ;
#76 = LINE ( 'NONE', #139, #223 ) ;
#77 = AXIS2_PLACEMENT_3D ( 'NONE', #233, #93, #48 ) ;
#78 = DATE_AND_TIME ( #249, #242 ) ;
#79 = DIRECTION ( 'NONE',  ( 1.000000000000000000, 0.000000000000000000, 0.000000000000000000 ) ) ;
#80 = CARTESIAN_POINT ( 'NONE',  ( -9.000000000000000000, 0.000000000000000000, 7.000000000000000000 ) ) ;
#81 = EDGE_CURVE ( 'NONE', #84, #86, #124, .T. ) ;
#82 = COORDINATED_UNIVERSAL_TIME_OFFSET ( 1, 0, .AHEAD. ) ;
#83 = SECURITY_CLASSIFICATION ( '', '', #73 ) ;
#84 = VERTEX_POINT ( 'NONE', #246 ) ;
#85 = FACE_BOUND ( 'NONE', #161, .T. ) ;
#86 = VERTEX_POINT ( 'NONE', #91 ) ;
#87 = EDGE_CURVE ( 'NONE', #228, #195, #74, .T. ) ;
#88 = DIRECTION ( 'NONE',  ( 0.000000000000000000, 0.000000000000000000, 1.000000000000000000 ) ) ;
#89 = UNCERTAINTY_MEASURE_WITH_UNIT (LENGTH_MEASURE( 1.000000000000000082E-05 ), #37, 'distance_accuracy_value', 'NONE');
#90 = PLANE ( 'NONE',  #110 ) ;
#91 = CARTESIAN_POINT ( 'NONE',  ( -9.000000000000000000, 0.000000000000000000, 7.000000000000000000 ) ) ;
#92 = CARTESIAN_POINT ( 'NONE',  ( 9.000000000000000000, 1.102182119232617714E-15, 0.000000000000000000 ) ) ;
#93 = DIRECTION ( 'NONE',  ( 0.000000000000000000, 0.000000000000000000, 1.000000000000000000 ) ) ;
#94 = DATE_AND_TIME ( #193, #191 ) ;
#95 = SHAPE_DEFINITION_REPRESENTATION ( #50, #44 ) ;
#96 = LINE ( 'NONE', #235, #31 ) ;
#97 = ADVANCED_FACE ( 'NONE', ( #218 ), #196, .T. ) ;
#98 = FACE_OUTER_BOUND ( 'NONE', #46, .T. ) ;
#99 =( NAMED_UNIT ( * ) SI_UNIT ( $, .STERADIAN. ) SOLID_ANGLE_UNIT ( ) );
#100 = CARTESIAN_POINT ( 'NONE',  ( 0.000000000000000000, 0.000000000000000000, 200.0000000000000000 ) ) ;
#101 = AXIS2_PLACEMENT_3D ( 'NONE', #100, #251, #42 ) ;
#102 = ADVANCED_FACE ( 'NONE', ( #98 ), #103, .T. ) ;
#103 = CYLINDRICAL_SURFACE ( 'NONE', #152, 6.000000000000000888 ) ;
#104 = ORIENTED_EDGE ( 'NONE', *, *, #252, .F. ) ;
#105 = PERSON ( 'NEURÈENÝ', 'NEURÈENÝ', 'NEURÈENÝ', ('NEURÈENÝ'), ('NEURÈENÝ'), ('NEURÈENÝ') ) ;
#106 = LINE ( 'NONE', #23, #39 ) ;
#107 = ORIENTED_EDGE ( 'NONE', *, *, #237, .T. ) ;
#108 = APPLICATION_PROTOCOL_DEFINITION ( 'international standard', 'config_control_design', 1994, #113 ) ;
#109 = EDGE_LOOP ( 'NONE', ( #7, #203 ) ) ;
#110 = AXIS2_PLACEMENT_3D ( 'NONE', #160, #63, #111 ) ;
#111 = DIRECTION ( 'NONE',  ( 1.000000000000000000, 0.000000000000000000, -0.000000000000000000 ) ) ;
#112 = AXIS2_PLACEMENT_3D ( 'NONE', #247, #151, #250 ) ;
#113 = APPLICATION_CONTEXT ( 'configuration controlled 3d designs of mechanical parts and assemblies' ) ;
#114 = AXIS2_PLACEMENT_3D ( 'NONE', #56, #221, #19 ) ;
#115 = VECTOR ( 'NONE', #141, 1000.000000000000000 ) ;
#116 = LOCAL_TIME ( 13, 25, 21.00000000000000000, #25 ) ;
#117 = DIRECTION ( 'NONE',  ( -0.000000000000000000, -0.000000000000000000, -1.000000000000000000 ) ) ;
#118 = ORIENTED_EDGE ( 'NONE', *, *, #81, .F. ) ;
#119 = ADVANCED_FACE ( 'NONE', ( #239 ), #128, .T. ) ;
#120 = EDGE_LOOP ( 'NONE', ( #15, #52, #148, #104 ) ) ;
#121 = CIRCLE ( 'NONE', #201, 9.000000000000000000 ) ;
#122 =( GEOMETRIC_REPRESENTATION_CONTEXT ( 3 ) GLOBAL_UNCERTAINTY_ASSIGNED_CONTEXT ( ( #89 ) ) GLOBAL_UNIT_ASSIGNED_CONTEXT ( ( #37, #199, #99 ) ) REPRESENTATION_CONTEXT ( 'NONE', 'WORKASPACE' ) );
#123 = DIRECTION ( 'NONE',  ( 0.000000000000000000, 0.000000000000000000, 1.000000000000000000 ) ) ;
#124 = CIRCLE ( 'NONE', #181, 9.000000000000000000 ) ;
#125 = CC_DESIGN_APPROVAL ( #30, ( #225 ) ) ;
#126 = CC_DESIGN_PERSON_AND_ORGANIZATION_ASSIGNMENT ( #53, #136, ( #83 ) ) ;
#127 = AXIS2_PLACEMENT_3D ( 'NONE', #153, #194, #238 ) ;
#128 = CYLINDRICAL_SURFACE ( 'NONE', #186, 6.000000000000000888 ) ;
#129 = CC_DESIGN_APPROVAL ( #134, ( #147 ) ) ;
#130 = EDGE_LOOP ( 'NONE', ( #118, #244, #175, #178 ) ) ;
#131 = CARTESIAN_POINT ( 'NONE',  ( 6.000000000000000888, 7.347880794884120722E-16, 7.000000000000000000 ) ) ;
#132 = ORIENTED_EDGE ( 'NONE', *, *, #252, .T. ) ;
#133 = FACE_OUTER_BOUND ( 'NONE', #180, .T. ) ;
#134 = APPROVAL ( #234, 'NEURÈENÝ' ) ;
#135 = ORIENTED_EDGE ( 'NONE', *, *, #87, .F. ) ;
#136 = PERSON_AND_ORGANIZATION_ROLE ( 'classification_officer' ) ;
#137 = APPROVAL_PERSON_ORGANIZATION ( #41, #30, #207 ) ;
#138 = APPROVAL_STATUS ( 'not_yet_approved' ) ;
#139 = CARTESIAN_POINT ( 'NONE',  ( 9.000000000000000000, 1.102182119232617714E-15, 7.000000000000000000 ) ) ;
#140 = DIRECTION ( 'NONE',  ( -0.000000000000000000, -0.000000000000000000, -1.000000000000000000 ) ) ;
#141 = DIRECTION ( 'NONE',  ( -0.000000000000000000, -0.000000000000000000, -1.000000000000000000 ) ) ;
#142 = CC_DESIGN_PERSON_AND_ORGANIZATION_ASSIGNMENT ( #210, #34, ( #147 ) ) ;
#143 = ORGANIZATION ( 'NEURÈENÝ', 'NEURÈENÝ', '' ) ;
#144 = EDGE_CURVE ( 'NONE', #27, #205, #176, .T. ) ;
#145 = CARTESIAN_POINT ( 'NONE',  ( 0.000000000000000000, 0.000000000000000000, 200.0000000000000000 ) ) ;
#146 = VERTEX_POINT ( 'NONE', #92 ) ;
#147 = PRODUCT_DEFINITION_FORMATION_WITH_SPECIFIED_SOURCE ( 'LIBOVOLNÝ', '', #36, .NOT_KNOWN. ) ;
#148 = ORIENTED_EDGE ( 'NONE', *, *, #87, .T. ) ;
#149 = EDGE_LOOP ( 'NONE', ( #189, #214 ) ) ;
#150 = MANIFOLD_SOLID_BREP ( 'Pøidat vysunutím3', #57 ) ;
#151 = DIRECTION ( 'NONE',  ( 0.000000000000000000, 0.000000000000000000, 1.000000000000000000 ) ) ;
#152 = AXIS2_PLACEMENT_3D ( 'NONE', #45, #177, #159 ) ;
#153 = CARTESIAN_POINT ( 'NONE',  ( 0.000000000000000000, 0.000000000000000000, 0.000000000000000000 ) ) ;
#154 = EDGE_CURVE ( 'NONE', #195, #228, #220, .T. ) ;
#155 = APPROVAL_ROLE ( '' ) ;
#156 = LOCAL_TIME ( 13, 25, 21.00000000000000000, #11 ) ;
#157 = MECHANICAL_CONTEXT ( 'NONE', #187, 'mechanical' ) ;
#158 = EDGE_CURVE ( 'NONE', #84, #146, #76, .T. ) ;
#159 = DIRECTION ( 'NONE',  ( -1.000000000000000000, 0.000000000000000000, 0.000000000000000000 ) ) ;
#160 = CARTESIAN_POINT ( 'NONE',  ( 0.000000000000000000, 0.000000000000000000, 7.000000000000000000 ) ) ;
#161 = EDGE_LOOP ( 'NONE', ( #253, #135 ) ) ;
#162 = ORIENTED_EDGE ( 'NONE', *, *, #49, .F. ) ;
#163 = ORIENTED_EDGE ( 'NONE', *, *, #154, .T. ) ;
#164 = DIRECTION ( 'NONE',  ( 0.000000000000000000, 0.000000000000000000, 1.000000000000000000 ) ) ;
#165 = CALENDAR_DATE ( 2023, 13, 2 ) ;
#166 = CARTESIAN_POINT ( 'NONE',  ( 0.000000000000000000, 0.000000000000000000, 200.0000000000000000 ) ) ;
#167 = DIRECTION ( 'NONE',  ( 0.000000000000000000, 0.000000000000000000, 1.000000000000000000 ) ) ;
#168 = COORDINATED_UNIVERSAL_TIME_OFFSET ( 1, 0, .AHEAD. ) ;
#169 = AXIS2_PLACEMENT_3D ( 'NONE', #166, #12, #4 ) ;
#170 = CC_DESIGN_APPROVAL ( #61, ( #83 ) ) ;
#171 = CARTESIAN_POINT ( 'NONE',  ( 0.000000000000000000, 0.000000000000000000, 0.000000000000000000 ) ) ;
#172 = ORIENTED_EDGE ( 'NONE', *, *, #81, .T. ) ;
#173 = DIRECTION ( 'NONE',  ( -0.000000000000000000, -0.000000000000000000, -1.000000000000000000 ) ) ;
#174 = DATE_AND_TIME ( #183, #116 ) ;
#175 = ORIENTED_EDGE ( 'NONE', *, *, #8, .T. ) ;
#176 = CIRCLE ( 'NONE', #77, 6.000000000000000888 ) ;
#177 = DIRECTION ( 'NONE',  ( -0.000000000000000000, -0.000000000000000000, -1.000000000000000000 ) ) ;
#178 = ORIENTED_EDGE ( 'NONE', *, *, #237, .F. ) ;
#179 = PERSON_AND_ORGANIZATION ( #105, #143 ) ;
#180 = EDGE_LOOP ( 'NONE', ( #2, #172 ) ) ;
#181 = AXIS2_PLACEMENT_3D ( 'NONE', #71, #167, #51 ) ;
#182 = DIRECTION ( 'NONE',  ( 1.000000000000000000, 0.000000000000000000, 0.000000000000000000 ) ) ;
#183 = CALENDAR_DATE ( 2023, 13, 2 ) ;
#184 = COORDINATED_UNIVERSAL_TIME_OFFSET ( 1, 0, .AHEAD. ) ;
#185 = ADVANCED_FACE ( 'NONE', ( #85, #133 ), #90, .T. ) ;
#186 = AXIS2_PLACEMENT_3D ( 'NONE', #145, #173, #14 ) ;
#187 = APPLICATION_CONTEXT ( 'configuration controlled 3d designs of mechanical parts and assemblies' ) ;
#188 = APPROVAL_DATE_TIME ( #68, #134 ) ;
#189 = ORIENTED_EDGE ( 'NONE', *, *, #49, .T. ) ;
#190 = ADVANCED_FACE ( 'NONE', ( #47 ), #231, .T. ) ;
#191 = LOCAL_TIME ( 13, 25, 21.00000000000000000, #184 ) ;
#192 = DIRECTION ( 'NONE',  ( -1.000000000000000000, 0.000000000000000000, 0.000000000000000000 ) ) ;
#193 = CALENDAR_DATE ( 2023, 13, 2 ) ;
#194 = DIRECTION ( 'NONE',  ( 0.000000000000000000, 0.000000000000000000, 1.000000000000000000 ) ) ;
#195 = VERTEX_POINT ( 'NONE', #211 ) ;
#196 = CYLINDRICAL_SURFACE ( 'NONE', #114, 9.000000000000000000 ) ;
#197 = PRODUCT_RELATED_PRODUCT_CATEGORY ( 'detail', '', ( #36 ) ) ;
#198 = PERSON_AND_ORGANIZATION ( #105, #143 ) ;
#199 =( NAMED_UNIT ( * ) PLANE_ANGLE_UNIT ( ) SI_UNIT ( $, .RADIAN. ) );
#200 = PLANE ( 'NONE',  #127 ) ;
#201 = AXIS2_PLACEMENT_3D ( 'NONE', #64, #26, #22 ) ;
#202 = CIRCLE ( 'NONE', #227, 9.000000000000000000 ) ;
#203 = ORIENTED_EDGE ( 'NONE', *, *, #8, .F. ) ;
#204 = DATE_TIME_ROLE ( 'creation_date' ) ;
#205 = VERTEX_POINT ( 'NONE', #65 ) ;
#206 = DESIGN_CONTEXT ( 'detailed design', #113, 'design' ) ;
#207 = APPROVAL_ROLE ( '' ) ;
#208 = CARTESIAN_POINT ( 'NONE',  ( 0.000000000000000000, 0.000000000000000000, 0.000000000000000000 ) ) ;
#209 = PERSON_AND_ORGANIZATION_ROLE ( 'design_owner' ) ;
#210 = PERSON_AND_ORGANIZATION ( #105, #143 ) ;
#211 = CARTESIAN_POINT ( 'NONE',  ( -6.000000000000000888, 0.000000000000000000, 7.000000000000000000 ) ) ;
#212 = ORIENTED_EDGE ( 'NONE', *, *, #55, .F. ) ;
#213 = CC_DESIGN_PERSON_AND_ORGANIZATION_ASSIGNMENT ( #54, #18, ( #147 ) ) ;
#214 = ORIENTED_EDGE ( 'NONE', *, *, #144, .T. ) ;
#215 = CARTESIAN_POINT ( 'NONE',  ( 0.000000000000000000, 0.000000000000000000, 7.000000000000000000 ) ) ;
#216 = FACE_OUTER_BOUND ( 'NONE', #109, .T. ) ;
#217 = CC_DESIGN_DATE_AND_TIME_ASSIGNMENT ( #226, #204, ( #225 ) ) ;
#218 = FACE_OUTER_BOUND ( 'NONE', #130, .T. ) ;
#219 = APPLICATION_PROTOCOL_DEFINITION ( 'international standard', 'config_control_design', 1994, #187 ) ;
#220 = CIRCLE ( 'NONE', #40, 6.000000000000000888 ) ;
#221 = DIRECTION ( 'NONE',  ( -0.000000000000000000, -0.000000000000000000, -1.000000000000000000 ) ) ;
#222 = PERSON_AND_ORGANIZATION ( #105, #143 ) ;
#223 = VECTOR ( 'NONE', #75, 1000.000000000000000 ) ;
#224 = AXIS2_PLACEMENT_3D ( 'NONE', #171, #123, #79 ) ;
#225 = PRODUCT_DEFINITION ( 'NEZNÁMÝ', '', #147, #206 ) ;
#226 = DATE_AND_TIME ( #60, #1 ) ;
#227 = AXIS2_PLACEMENT_3D ( 'NONE', #208, #88, #182 ) ;
#228 = VERTEX_POINT ( 'NONE', #131 ) ;
#229 = VERTEX_POINT ( 'NONE', #69 ) ;
#230 = CC_DESIGN_SECURITY_CLASSIFICATION ( #83, ( #147 ) ) ;
#231 = PLANE ( 'NONE',  #169 ) ;
#232 = ORIENTED_EDGE ( 'NONE', *, *, #158, .F. ) ;
#233 = CARTESIAN_POINT ( 'NONE',  ( 0.000000000000000000, 0.000000000000000000, 200.0000000000000000 ) ) ;
#234 = APPROVAL_STATUS ( 'not_yet_approved' ) ;
#235 = CARTESIAN_POINT ( 'NONE',  ( -6.000000000000000888, 0.000000000000000000, 200.0000000000000000 ) ) ;
#236 = APPROVAL_PERSON_ORGANIZATION ( #198, #134, #155 ) ;
#237 = EDGE_CURVE ( 'NONE', #86, #229, #17, .T. ) ;
#238 = DIRECTION ( 'NONE',  ( 1.000000000000000000, 0.000000000000000000, -0.000000000000000000 ) ) ;
#239 = FACE_OUTER_BOUND ( 'NONE', #120, .T. ) ;
#240 = CC_DESIGN_DATE_AND_TIME_ASSIGNMENT ( #78, #28, ( #83 ) ) ;
#241 = FACE_OUTER_BOUND ( 'NONE', #43, .T. ) ;
#242 = LOCAL_TIME ( 13, 25, 21.00000000000000000, #168 ) ;
#243 = CYLINDRICAL_SURFACE ( 'NONE', #6, 9.000000000000000000 ) ;
#244 = ORIENTED_EDGE ( 'NONE', *, *, #158, .T. ) ;
#245 = DIRECTION ( 'NONE',  ( 1.000000000000000000, 0.000000000000000000, 0.000000000000000000 ) ) ;
#246 = CARTESIAN_POINT ( 'NONE',  ( 9.000000000000000000, 1.102182119232617714E-15, 7.000000000000000000 ) ) ;
#247 = CARTESIAN_POINT ( 'NONE',  ( 0.000000000000000000, 0.000000000000000000, 7.000000000000000000 ) ) ;
#248 = CC_DESIGN_PERSON_AND_ORGANIZATION_ASSIGNMENT ( #179, #5, ( #225 ) ) ;
#249 = CALENDAR_DATE ( 2023, 13, 2 ) ;
#250 = DIRECTION ( 'NONE',  ( 1.000000000000000000, 0.000000000000000000, 0.000000000000000000 ) ) ;
#251 = DIRECTION ( 'NONE',  ( 0.000000000000000000, 0.000000000000000000, 1.000000000000000000 ) ) ;
#252 = EDGE_CURVE ( 'NONE', #205, #195, #96, .T. ) ;
#253 = ORIENTED_EDGE ( 'NONE', *, *, #154, .F. ) ;
#254 = APPROVAL_DATE_TIME ( #174, #30 ) ;
#255 = DIRECTION ( 'NONE',  ( -0.000000000000000000, -0.000000000000000000, -1.000000000000000000 ) ) ;
ENDSEC;
END-ISO-10303-21;
