ISO-10303-21;
HEADER;
FILE_DESCRIPTION (( 'STEP AP203' ),
    '1' );
FILE_NAME ('ab60.STEP',
    '2023-02-13T15:22:56',
    ( '' ),
    ( '' ),
    'SwSTEP 2.0',
    'SolidWorks 2019',
    '' );
FILE_SCHEMA (( 'CONFIG_CONTROL_DESIGN' ));
ENDSEC;

DATA;
#1 = LINE ( 'NONE', #72, #161 ) ;
#2 = ORIENTED_EDGE ( 'NONE', *, *, #52, .F. ) ;
#3 = FACE_OUTER_BOUND ( 'NONE', #94, .T. ) ;
#4 = ORIENTED_EDGE ( 'NONE', *, *, #95, .F. ) ;
#5 = APPLICATION_CONTEXT ( 'configuration controlled 3d designs of mechanical parts and assemblies' ) ;
#6 = PERSON_AND_ORGANIZATION ( #111, #85 ) ;
#7 = SECURITY_CLASSIFICATION ( '', '', #102 ) ;
#8 = AXIS2_PLACEMENT_3D ( 'NONE', #127, #89, #74 ) ;
#9 =( NAMED_UNIT ( * ) PLANE_ANGLE_UNIT ( ) SI_UNIT ( $, .RADIAN. ) );
#10 = EDGE_LOOP ( 'NONE', ( #204, #222 ) ) ;
#11 = DIRECTION ( 'NONE',  ( 1.000000000000000000, 0.000000000000000000, 0.000000000000000000 ) ) ;
#12 = VERTEX_POINT ( 'NONE', #79 ) ;
#13 = CARTESIAN_POINT ( 'NONE',  ( 0.000000000000000000, 0.000000000000000000, 100.0000000000000000 ) ) ;
#14 = CALENDAR_DATE ( 2023, 13, 2 ) ;
#15 = CARTESIAN_POINT ( 'NONE',  ( 0.000000000000000000, 0.000000000000000000, 0.000000000000000000 ) ) ;
#16 = AXIS2_PLACEMENT_3D ( 'NONE', #38, #146, #162 ) ;
#17 = APPROVAL_PERSON_ORGANIZATION ( #135, #154, #153 ) ;
#18 = AXIS2_PLACEMENT_3D ( 'NONE', #206, #185, #11 ) ;
#19 = CC_DESIGN_DATE_AND_TIME_ASSIGNMENT ( #126, #240, ( #7 ) ) ;
#20 = CARTESIAN_POINT ( 'NONE',  ( -6.000000000000000888, 0.000000000000000000, 5.000000000000000000 ) ) ;
#21 = DESIGN_CONTEXT ( 'detailed design', #5, 'design' ) ;
#22 = PERSON_AND_ORGANIZATION ( #111, #85 ) ;
#23 = DIRECTION ( 'NONE',  ( -1.000000000000000000, 0.000000000000000000, 0.000000000000000000 ) ) ;
#24 = AXIS2_PLACEMENT_3D ( 'NONE', #84, #68, #224 ) ;
#25 = CARTESIAN_POINT ( 'NONE',  ( -3.000000000000000444, 0.000000000000000000, 100.0000000000000000 ) ) ;
#26 = PRODUCT_RELATED_PRODUCT_CATEGORY ( 'detail', '', ( #134 ) ) ;
#27 = AXIS2_PLACEMENT_3D ( 'NONE', #217, #193, #23 ) ;
#28 = APPROVAL_STATUS ( 'not_yet_approved' ) ;
#29 = DIRECTION ( 'NONE',  ( 1.000000000000000000, 0.000000000000000000, 0.000000000000000000 ) ) ;
#30 = EDGE_CURVE ( 'NONE', #75, #101, #168, .T. ) ;
#31 = LOCAL_TIME ( 16, 22, 56.00000000000000000, #109 ) ;
#32 = DATE_AND_TIME ( #14, #137 ) ;
#33 = CC_DESIGN_APPROVAL ( #158, ( #7 ) ) ;
#34 = CARTESIAN_POINT ( 'NONE',  ( 6.000000000000000888, 7.347880794884120722E-16, 0.000000000000000000 ) ) ;
#35 = ADVANCED_FACE ( 'NONE', ( #159, #121 ), #144, .T. ) ;
#36 = FACE_OUTER_BOUND ( 'NONE', #66, .T. ) ;
#37 = CARTESIAN_POINT ( 'NONE',  ( 3.000000000000000444, 3.673940397442060361E-16, 100.0000000000000000 ) ) ;
#38 = CARTESIAN_POINT ( 'NONE',  ( 0.000000000000000000, 0.000000000000000000, 100.0000000000000000 ) ) ;
#39 = EDGE_LOOP ( 'NONE', ( #2, #73, #56, #113 ) ) ;
#40 = PERSON_AND_ORGANIZATION_ROLE ( 'design_supplier' ) ;
#41 = CC_DESIGN_APPROVAL ( #180, ( #44 ) ) ;
#42 = DIRECTION ( 'NONE',  ( -1.000000000000000000, 0.000000000000000000, 0.000000000000000000 ) ) ;
#43 = APPROVAL_ROLE ( '' ) ;
#44 = PRODUCT_DEFINITION_FORMATION_WITH_SPECIFIED_SOURCE ( 'LIBOVOLNÝ', '', #134, .NOT_KNOWN. ) ;
#45 = ORIENTED_EDGE ( 'NONE', *, *, #67, .T. ) ;
#46 = EDGE_CURVE ( 'NONE', #139, #151, #48, .T. ) ;
#47 = EDGE_CURVE ( 'NONE', #237, #187, #62, .T. ) ;
#48 = CIRCLE ( 'NONE', #24, 6.000000000000000888 ) ;
#49 = ORIENTED_EDGE ( 'NONE', *, *, #218, .T. ) ;
#50 = AXIS2_PLACEMENT_3D ( 'NONE', #141, #245, #53 ) ;
#51 = DIRECTION ( 'NONE',  ( 0.000000000000000000, 0.000000000000000000, 1.000000000000000000 ) ) ;
#52 = EDGE_CURVE ( 'NONE', #237, #12, #189, .T. ) ;
#53 = DIRECTION ( 'NONE',  ( 1.000000000000000000, 0.000000000000000000, -0.000000000000000000 ) ) ;
#54 = AXIS2_PLACEMENT_3D ( 'NONE', #59, #211, #122 ) ;
#55 = APPROVAL_DATE_TIME ( #58, #180 ) ;
#56 = ORIENTED_EDGE ( 'NONE', *, *, #184, .T. ) ;
#57 = DIRECTION ( 'NONE',  ( 1.000000000000000000, 0.000000000000000000, 0.000000000000000000 ) ) ;
#58 = DATE_AND_TIME ( #232, #182 ) ;
#59 = CARTESIAN_POINT ( 'NONE',  ( 0.000000000000000000, 0.000000000000000000, 0.000000000000000000 ) ) ;
#60 = DIRECTION ( 'NONE',  ( 1.000000000000000000, 0.000000000000000000, -0.000000000000000000 ) ) ;
#61 = ORIENTED_EDGE ( 'NONE', *, *, #140, .F. ) ;
#62 = CIRCLE ( 'NONE', #18, 3.000000000000000444 ) ;
#63 = ORIENTED_EDGE ( 'NONE', *, *, #30, .T. ) ;
#64 = DIRECTION ( 'NONE',  ( 0.000000000000000000, 0.000000000000000000, 1.000000000000000000 ) ) ;
#65 = PERSON_AND_ORGANIZATION_ROLE ( 'design_owner' ) ;
#66 = EDGE_LOOP ( 'NONE', ( #45, #138 ) ) ;
#67 = EDGE_CURVE ( 'NONE', #187, #237, #239, .T. ) ;
#68 = DIRECTION ( 'NONE',  ( 0.000000000000000000, 0.000000000000000000, 1.000000000000000000 ) ) ;
#69 = EDGE_LOOP ( 'NONE', ( #132, #133, #249, #63 ) ) ;
#70 = LINE ( 'NONE', #227, #223 ) ;
#71 = DATE_AND_TIME ( #234, #31 ) ;
#72 = CARTESIAN_POINT ( 'NONE',  ( 6.000000000000000888, 7.347880794884120722E-16, 5.000000000000000000 ) ) ;
#73 = ORIENTED_EDGE ( 'NONE', *, *, #67, .F. ) ;
#74 = DIRECTION ( 'NONE',  ( 1.000000000000000000, 0.000000000000000000, 0.000000000000000000 ) ) ;
#75 = VERTEX_POINT ( 'NONE', #251 ) ;
#76 = APPLICATION_PROTOCOL_DEFINITION ( 'international standard', 'config_control_design', 1994, #5 ) ;
#77 = ORIENTED_EDGE ( 'NONE', *, *, #140, .T. ) ;
#78 = ADVANCED_FACE ( 'NONE', ( #36 ), #166, .T. ) ;
#79 = CARTESIAN_POINT ( 'NONE',  ( 3.000000000000000444, 3.673940397442060361E-16, 5.000000000000000000 ) ) ;
#80 = DIRECTION ( 'NONE',  ( 0.000000000000000000, 0.000000000000000000, 1.000000000000000000 ) ) ;
#81 = DIRECTION ( 'NONE',  ( 1.000000000000000000, 0.000000000000000000, 0.000000000000000000 ) ) ;
#82 = LOCAL_TIME ( 16, 22, 56.00000000000000000, #152 ) ;
#83 = CARTESIAN_POINT ( 'NONE',  ( 0.000000000000000000, 0.000000000000000000, 5.000000000000000000 ) ) ;
#84 = CARTESIAN_POINT ( 'NONE',  ( 0.000000000000000000, 0.000000000000000000, 5.000000000000000000 ) ) ;
#85 = ORGANIZATION ( 'NEURÈENÝ', 'NEURÈENÝ', '' ) ;
#86 = VECTOR ( 'NONE', #169, 1000.000000000000000 ) ;
#87 = CLOSED_SHELL ( 'NONE', ( #163, #155, #178, #35, #205, #110, #78 ) ) ;
#88 = APPROVAL_DATE_TIME ( #216, #158 ) ;
#89 = DIRECTION ( 'NONE',  ( 0.000000000000000000, 0.000000000000000000, 1.000000000000000000 ) ) ;
#90 = COORDINATED_UNIVERSAL_TIME_OFFSET ( 1, 0, .AHEAD. ) ;
#91 = CIRCLE ( 'NONE', #207, 3.000000000000000444 ) ;
#92 = CC_DESIGN_PERSON_AND_ORGANIZATION_ASSIGNMENT ( #104, #165, ( #7 ) ) ;
#93 =( GEOMETRIC_REPRESENTATION_CONTEXT ( 3 ) GLOBAL_UNCERTAINTY_ASSIGNED_CONTEXT ( ( #107 ) ) GLOBAL_UNIT_ASSIGNED_CONTEXT ( ( #179, #9, #136 ) ) REPRESENTATION_CONTEXT ( 'NONE', 'WORKASPACE' ) );
#94 = EDGE_LOOP ( 'NONE', ( #248, #61 ) ) ;
#95 = EDGE_CURVE ( 'NONE', #151, #75, #70, .T. ) ;
#96 = APPROVAL_DATE_TIME ( #32, #154 ) ;
#97 = VERTEX_POINT ( 'NONE', #115 ) ;
#98 = AXIS2_PLACEMENT_3D ( 'NONE', #15, #183, #225 ) ;
#99 = DIRECTION ( 'NONE',  ( 1.000000000000000000, 0.000000000000000000, -0.000000000000000000 ) ) ;
#100 = DIRECTION ( 'NONE',  ( -0.000000000000000000, -0.000000000000000000, -1.000000000000000000 ) ) ;
#101 = VERTEX_POINT ( 'NONE', #34 ) ;
#102 = SECURITY_CLASSIFICATION_LEVEL ( 'unclassified' ) ;
#103 = EDGE_CURVE ( 'NONE', #12, #97, #91, .T. ) ;
#104 = PERSON_AND_ORGANIZATION ( #111, #85 ) ;
#105 = CYLINDRICAL_SURFACE ( 'NONE', #27, 6.000000000000000888 ) ;
#106 = DIRECTION ( 'NONE',  ( -1.000000000000000000, 0.000000000000000000, 0.000000000000000000 ) ) ;
#107 = UNCERTAINTY_MEASURE_WITH_UNIT (LENGTH_MEASURE( 1.000000000000000082E-05 ), #179, 'distance_accuracy_value', 'NONE');
#108 = DIRECTION ( 'NONE',  ( -0.000000000000000000, -0.000000000000000000, -1.000000000000000000 ) ) ;
#109 = COORDINATED_UNIVERSAL_TIME_OFFSET ( 1, 0, .AHEAD. ) ;
#110 = ADVANCED_FACE ( 'NONE', ( #118 ), #210, .T. ) ;
#111 = PERSON ( 'NEURÈENÝ', 'NEURÈENÝ', 'NEURÈENÝ', ('NEURÈENÝ'), ('NEURÈENÝ'), ('NEURÈENÝ') ) ;
#112 = AXIS2_PLACEMENT_3D ( 'NONE', #13, #209, #81 ) ;
#113 = ORIENTED_EDGE ( 'NONE', *, *, #164, .T. ) ;
#114 = APPLICATION_CONTEXT ( 'configuration controlled 3d designs of mechanical parts and assemblies' ) ;
#115 = CARTESIAN_POINT ( 'NONE',  ( -3.000000000000000444, 0.000000000000000000, 5.000000000000000000 ) ) ;
#116 = PERSON_AND_ORGANIZATION_ROLE ( 'creator' ) ;
#117 = CARTESIAN_POINT ( 'NONE',  ( 0.000000000000000000, 0.000000000000000000, 100.0000000000000000 ) ) ;
#118 = FACE_OUTER_BOUND ( 'NONE', #39, .T. ) ;
#119 = APPROVAL_PERSON_ORGANIZATION ( #198, #158, #43 ) ;
#120 = PERSON_AND_ORGANIZATION ( #111, #85 ) ;
#121 = FACE_OUTER_BOUND ( 'NONE', #148, .T. ) ;
#122 = DIRECTION ( 'NONE',  ( 1.000000000000000000, 0.000000000000000000, 0.000000000000000000 ) ) ;
#123 = CIRCLE ( 'NONE', #228, 3.000000000000000444 ) ;
#124 = CC_DESIGN_PERSON_AND_ORGANIZATION_ASSIGNMENT ( #120, #40, ( #44 ) ) ;
#125 = DIRECTION ( 'NONE',  ( 1.000000000000000000, 0.000000000000000000, 0.000000000000000000 ) ) ;
#126 = DATE_AND_TIME ( #177, #82 ) ;
#127 = CARTESIAN_POINT ( 'NONE',  ( 0.000000000000000000, 0.000000000000000000, 5.000000000000000000 ) ) ;
#128 = CALENDAR_DATE ( 2023, 13, 2 ) ;
#129 = ORIENTED_EDGE ( 'NONE', *, *, #52, .T. ) ;
#130 = CARTESIAN_POINT ( 'NONE',  ( -3.000000000000000444, 0.000000000000000000, 100.0000000000000000 ) ) ;
#131 = ORIENTED_EDGE ( 'NONE', *, *, #103, .T. ) ;
#132 = ORIENTED_EDGE ( 'NONE', *, *, #244, .F. ) ;
#133 = ORIENTED_EDGE ( 'NONE', *, *, #218, .F. ) ;
#134 = PRODUCT ( 'ab60', 'ab60', '', ( #199 ) ) ;
#135 = PERSON_AND_ORGANIZATION ( #111, #85 ) ;
#136 =( NAMED_UNIT ( * ) SI_UNIT ( $, .STERADIAN. ) SOLID_ANGLE_UNIT ( ) );
#137 = LOCAL_TIME ( 16, 22, 56.00000000000000000, #90 ) ;
#138 = ORIENTED_EDGE ( 'NONE', *, *, #47, .T. ) ;
#139 = VERTEX_POINT ( 'NONE', #231 ) ;
#140 = EDGE_CURVE ( 'NONE', #101, #75, #149, .T. ) ;
#141 = CARTESIAN_POINT ( 'NONE',  ( 0.000000000000000000, 0.000000000000000000, 5.000000000000000000 ) ) ;
#142 = AXIS2_PLACEMENT_3D ( 'NONE', #236, #235, #60 ) ;
#143 = VECTOR ( 'NONE', #108, 1000.000000000000000 ) ;
#144 = PLANE ( 'NONE',  #50 ) ;
#145 = ADVANCED_BREP_SHAPE_REPRESENTATION ( 'ab60', ( #194, #238 ), #93 ) ;
#146 = DIRECTION ( 'NONE',  ( -0.000000000000000000, -0.000000000000000000, -1.000000000000000000 ) ) ;
#147 = PLANE ( 'NONE',  #142 ) ;
#148 = EDGE_LOOP ( 'NONE', ( #49, #229 ) ) ;
#149 = CIRCLE ( 'NONE', #54, 6.000000000000000888 ) ;
#150 = DIRECTION ( 'NONE',  ( -0.000000000000000000, -0.000000000000000000, -1.000000000000000000 ) ) ;
#151 = VERTEX_POINT ( 'NONE', #20 ) ;
#152 = COORDINATED_UNIVERSAL_TIME_OFFSET ( 1, 0, .AHEAD. ) ;
#153 = APPROVAL_ROLE ( '' ) ;
#154 = APPROVAL ( #197, 'NEURÈENÝ' ) ;
#155 = ADVANCED_FACE ( 'NONE', ( #170 ), #175, .T. ) ;
#156 = COORDINATED_UNIVERSAL_TIME_OFFSET ( 1, 0, .AHEAD. ) ;
#157 = CARTESIAN_POINT ( 'NONE',  ( 0.000000000000000000, 0.000000000000000000, 0.000000000000000000 ) ) ;
#158 = APPROVAL ( #28, 'NEURÈENÝ' ) ;
#159 = FACE_BOUND ( 'NONE', #10, .T. ) ;
#160 = AXIS2_PLACEMENT_3D ( 'NONE', #233, #215, #42 ) ;
#161 = VECTOR ( 'NONE', #150, 1000.000000000000000 ) ;
#162 = DIRECTION ( 'NONE',  ( -1.000000000000000000, 0.000000000000000000, 0.000000000000000000 ) ) ;
#163 = ADVANCED_FACE ( 'NONE', ( #214 ), #195, .T. ) ;
#164 = EDGE_CURVE ( 'NONE', #97, #12, #123, .T. ) ;
#165 = PERSON_AND_ORGANIZATION_ROLE ( 'classification_officer' ) ;
#166 = PLANE ( 'NONE',  #191 ) ;
#167 = APPROVAL_ROLE ( '' ) ;
#168 = CIRCLE ( 'NONE', #98, 6.000000000000000888 ) ;
#169 = DIRECTION ( 'NONE',  ( -0.000000000000000000, -0.000000000000000000, -1.000000000000000000 ) ) ;
#170 = FACE_OUTER_BOUND ( 'NONE', #176, .T. ) ;
#171 = FACE_OUTER_BOUND ( 'NONE', #69, .T. ) ;
#172 = SHAPE_DEFINITION_REPRESENTATION ( #201, #145 ) ;
#173 = CARTESIAN_POINT ( 'NONE',  ( 0.000000000000000000, 0.000000000000000000, 5.000000000000000000 ) ) ;
#174 = CARTESIAN_POINT ( 'NONE',  ( 3.000000000000000444, 3.673940397442060361E-16, 100.0000000000000000 ) ) ;
#175 = CYLINDRICAL_SURFACE ( 'NONE', #160, 6.000000000000000888 ) ;
#176 = EDGE_LOOP ( 'NONE', ( #220, #181, #77, #4 ) ) ;
#177 = CALENDAR_DATE ( 2023, 13, 2 ) ;
#178 = ADVANCED_FACE ( 'NONE', ( #171 ), #105, .T. ) ;
#179 =( LENGTH_UNIT ( ) NAMED_UNIT ( * ) SI_UNIT ( .MILLI., .METRE. ) );
#180 = APPROVAL ( #212, 'NEURÈENÝ' ) ;
#181 = ORIENTED_EDGE ( 'NONE', *, *, #244, .T. ) ;
#182 = LOCAL_TIME ( 16, 22, 56.00000000000000000, #250 ) ;
#183 = DIRECTION ( 'NONE',  ( 0.000000000000000000, 0.000000000000000000, 1.000000000000000000 ) ) ;
#184 = EDGE_CURVE ( 'NONE', #187, #97, #255, .T. ) ;
#185 = DIRECTION ( 'NONE',  ( 0.000000000000000000, 0.000000000000000000, 1.000000000000000000 ) ) ;
#186 = CC_DESIGN_PERSON_AND_ORGANIZATION_ASSIGNMENT ( #6, #65, ( #134 ) ) ;
#187 = VERTEX_POINT ( 'NONE', #25 ) ;
#188 = CC_DESIGN_SECURITY_CLASSIFICATION ( #7, ( #44 ) ) ;
#189 = LINE ( 'NONE', #37, #86 ) ;
#190 = ORIENTED_EDGE ( 'NONE', *, *, #184, .F. ) ;
#191 = AXIS2_PLACEMENT_3D ( 'NONE', #117, #51, #99 ) ;
#192 = DIRECTION ( 'NONE',  ( 0.000000000000000000, 0.000000000000000000, 1.000000000000000000 ) ) ;
#193 = DIRECTION ( 'NONE',  ( -0.000000000000000000, -0.000000000000000000, -1.000000000000000000 ) ) ;
#194 = MANIFOLD_SOLID_BREP ( 'Pøidat vysunutím3', #87 ) ;
#195 = CYLINDRICAL_SURFACE ( 'NONE', #246, 3.000000000000000444 ) ;
#196 = APPROVAL_PERSON_ORGANIZATION ( #247, #180, #167 ) ;
#197 = APPROVAL_STATUS ( 'not_yet_approved' ) ;
#198 = PERSON_AND_ORGANIZATION ( #111, #85 ) ;
#199 = MECHANICAL_CONTEXT ( 'NONE', #114, 'mechanical' ) ;
#200 = CC_DESIGN_DATE_AND_TIME_ASSIGNMENT ( #71, #230, ( #254 ) ) ;
#201 = PRODUCT_DEFINITION_SHAPE ( 'NONE', 'NONE',  #254 ) ;
#202 = CIRCLE ( 'NONE', #8, 6.000000000000000888 ) ;
#203 = CC_DESIGN_PERSON_AND_ORGANIZATION_ASSIGNMENT ( #22, #116, ( #44 ) ) ;
#204 = ORIENTED_EDGE ( 'NONE', *, *, #164, .F. ) ;
#205 = ADVANCED_FACE ( 'NONE', ( #3 ), #147, .F. ) ;
#206 = CARTESIAN_POINT ( 'NONE',  ( 0.000000000000000000, 0.000000000000000000, 100.0000000000000000 ) ) ;
#207 = AXIS2_PLACEMENT_3D ( 'NONE', #83, #80, #57 ) ;
#208 = PERSON_AND_ORGANIZATION_ROLE ( 'creator' ) ;
#209 = DIRECTION ( 'NONE',  ( 0.000000000000000000, 0.000000000000000000, 1.000000000000000000 ) ) ;
#210 = CYLINDRICAL_SURFACE ( 'NONE', #16, 3.000000000000000444 ) ;
#211 = DIRECTION ( 'NONE',  ( 0.000000000000000000, 0.000000000000000000, 1.000000000000000000 ) ) ;
#212 = APPROVAL_STATUS ( 'not_yet_approved' ) ;
#213 = DIRECTION ( 'NONE',  ( -0.000000000000000000, -0.000000000000000000, -1.000000000000000000 ) ) ;
#214 = FACE_OUTER_BOUND ( 'NONE', #221, .T. ) ;
#215 = DIRECTION ( 'NONE',  ( -0.000000000000000000, -0.000000000000000000, -1.000000000000000000 ) ) ;
#216 = DATE_AND_TIME ( #128, #252 ) ;
#217 = CARTESIAN_POINT ( 'NONE',  ( 0.000000000000000000, 0.000000000000000000, 5.000000000000000000 ) ) ;
#218 = EDGE_CURVE ( 'NONE', #151, #139, #202, .T. ) ;
#219 = ORIENTED_EDGE ( 'NONE', *, *, #47, .F. ) ;
#220 = ORIENTED_EDGE ( 'NONE', *, *, #46, .F. ) ;
#221 = EDGE_LOOP ( 'NONE', ( #219, #129, #131, #190 ) ) ;
#222 = ORIENTED_EDGE ( 'NONE', *, *, #103, .F. ) ;
#223 = VECTOR ( 'NONE', #100, 1000.000000000000000 ) ;
#224 = DIRECTION ( 'NONE',  ( 1.000000000000000000, 0.000000000000000000, 0.000000000000000000 ) ) ;
#225 = DIRECTION ( 'NONE',  ( 1.000000000000000000, 0.000000000000000000, 0.000000000000000000 ) ) ;
#226 = PERSON_AND_ORGANIZATION ( #111, #85 ) ;
#227 = CARTESIAN_POINT ( 'NONE',  ( -6.000000000000000888, 0.000000000000000000, 5.000000000000000000 ) ) ;
#228 = AXIS2_PLACEMENT_3D ( 'NONE', #173, #192, #125 ) ;
#229 = ORIENTED_EDGE ( 'NONE', *, *, #46, .T. ) ;
#230 = DATE_TIME_ROLE ( 'creation_date' ) ;
#231 = CARTESIAN_POINT ( 'NONE',  ( 6.000000000000000888, 7.347880794884120722E-16, 5.000000000000000000 ) ) ;
#232 = CALENDAR_DATE ( 2023, 13, 2 ) ;
#233 = CARTESIAN_POINT ( 'NONE',  ( 0.000000000000000000, 0.000000000000000000, 5.000000000000000000 ) ) ;
#234 = CALENDAR_DATE ( 2023, 13, 2 ) ;
#235 = DIRECTION ( 'NONE',  ( 0.000000000000000000, 0.000000000000000000, 1.000000000000000000 ) ) ;
#236 = CARTESIAN_POINT ( 'NONE',  ( 0.000000000000000000, 0.000000000000000000, 0.000000000000000000 ) ) ;
#237 = VERTEX_POINT ( 'NONE', #174 ) ;
#238 = AXIS2_PLACEMENT_3D ( 'NONE', #157, #64, #29 ) ;
#239 = CIRCLE ( 'NONE', #112, 3.000000000000000444 ) ;
#240 = DATE_TIME_ROLE ( 'classification_date' ) ;
#241 = CC_DESIGN_PERSON_AND_ORGANIZATION_ASSIGNMENT ( #226, #208, ( #254 ) ) ;
#242 = APPLICATION_PROTOCOL_DEFINITION ( 'international standard', 'config_control_design', 1994, #114 ) ;
#243 = CC_DESIGN_APPROVAL ( #154, ( #254 ) ) ;
#244 = EDGE_CURVE ( 'NONE', #139, #101, #1, .T. ) ;
#245 = DIRECTION ( 'NONE',  ( 0.000000000000000000, 0.000000000000000000, 1.000000000000000000 ) ) ;
#246 = AXIS2_PLACEMENT_3D ( 'NONE', #253, #213, #106 ) ;
#247 = PERSON_AND_ORGANIZATION ( #111, #85 ) ;
#248 = ORIENTED_EDGE ( 'NONE', *, *, #30, .F. ) ;
#249 = ORIENTED_EDGE ( 'NONE', *, *, #95, .T. ) ;
#250 = COORDINATED_UNIVERSAL_TIME_OFFSET ( 1, 0, .AHEAD. ) ;
#251 = CARTESIAN_POINT ( 'NONE',  ( -6.000000000000000888, 0.000000000000000000, 0.000000000000000000 ) ) ;
#252 = LOCAL_TIME ( 16, 22, 56.00000000000000000, #156 ) ;
#253 = CARTESIAN_POINT ( 'NONE',  ( 0.000000000000000000, 0.000000000000000000, 100.0000000000000000 ) ) ;
#254 = PRODUCT_DEFINITION ( 'NEZNÁMÝ', '', #44, #21 ) ;
#255 = LINE ( 'NONE', #130, #143 ) ;
ENDSEC;
END-ISO-10303-21;
