ISO-10303-21;
HEADER;
FILE_DESCRIPTION (( 'STEP AP203' ),
    '1' );
FILE_NAME ('8608.STEP',
    '2023-02-13T16:40:19',
    ( '' ),
    ( '' ),
    'SwSTEP 2.0',
    'SolidWorks 2019',
    '' );
FILE_SCHEMA (( 'CONFIG_CONTROL_DESIGN' ));
ENDSEC;

DATA;
#1 = CC_DESIGN_PERSON_AND_ORGANIZATION_ASSIGNMENT ( #198, #179, ( #196 ) ) ;
#2 = AXIS2_PLACEMENT_3D ( 'NONE', #169, #150, #49 ) ;
#3 = EDGE_CURVE ( 'NONE', #237, #178, #68, .T. ) ;
#4 = CALENDAR_DATE ( 2023, 13, 2 ) ;
#5 = LINE ( 'NONE', #107, #58 ) ;
#6 = EDGE_LOOP ( 'NONE', ( #227, #77 ) ) ;
#7 = CARTESIAN_POINT ( 'NONE',  ( 0.000000000000000000, 0.000000000000000000, 0.000000000000000000 ) ) ;
#8 = VERTEX_POINT ( 'NONE', #82 ) ;
#9 = VERTEX_POINT ( 'NONE', #225 ) ;
#10 = SHAPE_DEFINITION_REPRESENTATION ( #12, #101 ) ;
#11 = EDGE_CURVE ( 'NONE', #178, #237, #199, .T. ) ;
#12 = PRODUCT_DEFINITION_SHAPE ( 'NONE', 'NONE',  #216 ) ;
#13 = APPROVAL_PERSON_ORGANIZATION ( #241, #143, #142 ) ;
#14 = LOCAL_TIME ( 17, 40, 19.00000000000000000, #182 ) ;
#15 = PLANE ( 'NONE',  #36 ) ;
#16 = VERTEX_POINT ( 'NONE', #105 ) ;
#17 = DIRECTION ( 'NONE',  ( 1.000000000000000000, 0.000000000000000000, 0.000000000000000000 ) ) ;
#18 = ADVANCED_FACE ( 'NONE', ( #240 ), #23, .F. ) ;
#19 = CARTESIAN_POINT ( 'NONE',  ( 2.500000000000000000, 3.061616997868383141E-16, 2.000000000000000000 ) ) ;
#20 = CARTESIAN_POINT ( 'NONE',  ( -1.250000000000000000, 0.000000000000000000, 2.000000000000000000 ) ) ;
#21 = EDGE_CURVE ( 'NONE', #218, #8, #5, .T. ) ;
#22 = APPROVAL_STATUS ( 'not_yet_approved' ) ;
#23 = PLANE ( 'NONE',  #170 ) ;
#24 = AXIS2_PLACEMENT_3D ( 'NONE', #206, #144, #201 ) ;
#25 = ORIENTED_EDGE ( 'NONE', *, *, #194, .F. ) ;
#26 = DATE_AND_TIME ( #249, #44 ) ;
#27 = DIRECTION ( 'NONE',  ( 1.000000000000000000, 0.000000000000000000, 0.000000000000000000 ) ) ;
#28 = CC_DESIGN_PERSON_AND_ORGANIZATION_ASSIGNMENT ( #81, #202, ( #50 ) ) ;
#29 = APPROVAL_STATUS ( 'not_yet_approved' ) ;
#30 = FACE_OUTER_BOUND ( 'NONE', #242, .T. ) ;
#31 = CC_DESIGN_APPROVAL ( #177, ( #216 ) ) ;
#32 = DIRECTION ( 'NONE',  ( 1.000000000000000000, 0.000000000000000000, -0.000000000000000000 ) ) ;
#33 = COORDINATED_UNIVERSAL_TIME_OFFSET ( 1, 0, .AHEAD. ) ;
#34 = DIRECTION ( 'NONE',  ( 0.000000000000000000, 0.000000000000000000, 1.000000000000000000 ) ) ;
#35 = CARTESIAN_POINT ( 'NONE',  ( 0.000000000000000000, 0.000000000000000000, 200.0000000000000000 ) ) ;
#36 = AXIS2_PLACEMENT_3D ( 'NONE', #53, #250, #32 ) ;
#37 =( NAMED_UNIT ( * ) SI_UNIT ( $, .STERADIAN. ) SOLID_ANGLE_UNIT ( ) );
#38 = AXIS2_PLACEMENT_3D ( 'NONE', #192, #59, #56 ) ;
#39 = PERSON ( 'NEURÈENÝ', 'NEURÈENÝ', 'NEURÈENÝ', ('NEURÈENÝ'), ('NEURÈENÝ'), ('NEURÈENÝ') ) ;
#40 = APPROVAL_DATE_TIME ( #145, #177 ) ;
#41 = ORIENTED_EDGE ( 'NONE', *, *, #168, .F. ) ;
#42 = PERSON_AND_ORGANIZATION_ROLE ( 'classification_officer' ) ;
#43 = CC_DESIGN_PERSON_AND_ORGANIZATION_ASSIGNMENT ( #85, #245, ( #196 ) ) ;
#44 = LOCAL_TIME ( 17, 40, 19.00000000000000000, #189 ) ;
#45 = ORIENTED_EDGE ( 'NONE', *, *, #21, .T. ) ;
#46 = CIRCLE ( 'NONE', #180, 1.250000000000000000 ) ;
#47 = ORIENTED_EDGE ( 'NONE', *, *, #94, .T. ) ;
#48 = ORIENTED_EDGE ( 'NONE', *, *, #3, .F. ) ;
#49 = DIRECTION ( 'NONE',  ( 1.000000000000000000, 0.000000000000000000, 0.000000000000000000 ) ) ;
#50 = PRODUCT ( '8608', '8608', '', ( #117 ) ) ;
#51 = DIRECTION ( 'NONE',  ( -0.000000000000000000, -0.000000000000000000, -1.000000000000000000 ) ) ;
#52 = AXIS2_PLACEMENT_3D ( 'NONE', #235, #114, #255 ) ;
#53 = CARTESIAN_POINT ( 'NONE',  ( 0.000000000000000000, 0.000000000000000000, 200.0000000000000000 ) ) ;
#54 = CYLINDRICAL_SURFACE ( 'NONE', #52, 2.500000000000000000 ) ;
#55 = ADVANCED_FACE ( 'NONE', ( #246 ), #148, .T. ) ;
#56 = DIRECTION ( 'NONE',  ( 1.000000000000000000, 0.000000000000000000, -0.000000000000000000 ) ) ;
#57 = EDGE_CURVE ( 'NONE', #9, #237, #211, .T. ) ;
#58 = VECTOR ( 'NONE', #163, 1000.000000000000000 ) ;
#59 = DIRECTION ( 'NONE',  ( 0.000000000000000000, 0.000000000000000000, 1.000000000000000000 ) ) ;
#60 = ORIENTED_EDGE ( 'NONE', *, *, #94, .F. ) ;
#61 = SECURITY_CLASSIFICATION_LEVEL ( 'unclassified' ) ;
#62 = EDGE_LOOP ( 'NONE', ( #64, #119 ) ) ;
#63 = PERSON_AND_ORGANIZATION ( #39, #83 ) ;
#64 = ORIENTED_EDGE ( 'NONE', *, *, #158, .F. ) ;
#65 = EDGE_LOOP ( 'NONE', ( #139, #80 ) ) ;
#66 = EDGE_CURVE ( 'NONE', #185, #218, #238, .T. ) ;
#67 = CARTESIAN_POINT ( 'NONE',  ( -1.250000000000000000, 0.000000000000000000, 200.0000000000000000 ) ) ;
#68 = CIRCLE ( 'NONE', #24, 1.250000000000000000 ) ;
#69 = APPROVAL_ROLE ( '' ) ;
#70 = DIRECTION ( 'NONE',  ( 0.000000000000000000, 0.000000000000000000, 1.000000000000000000 ) ) ;
#71 = DIRECTION ( 'NONE',  ( -1.000000000000000000, 0.000000000000000000, 0.000000000000000000 ) ) ;
#72 = DIRECTION ( 'NONE',  ( 0.000000000000000000, 0.000000000000000000, 1.000000000000000000 ) ) ;
#73 = LINE ( 'NONE', #221, #98 ) ;
#74 = CC_DESIGN_APPROVAL ( #125, ( #217 ) ) ;
#75 = LOCAL_TIME ( 17, 40, 19.00000000000000000, #140 ) ;
#76 =( LENGTH_UNIT ( ) NAMED_UNIT ( * ) SI_UNIT ( .MILLI., .METRE. ) );
#77 = ORIENTED_EDGE ( 'NONE', *, *, #128, .T. ) ;
#78 = APPLICATION_PROTOCOL_DEFINITION ( 'international standard', 'config_control_design', 1994, #247 ) ;
#79 = CALENDAR_DATE ( 2023, 13, 2 ) ;
#80 = ORIENTED_EDGE ( 'NONE', *, *, #66, .T. ) ;
#81 = PERSON_AND_ORGANIZATION ( #39, #83 ) ;
#82 = CARTESIAN_POINT ( 'NONE',  ( -2.500000000000000000, 0.000000000000000000, 0.000000000000000000 ) ) ;
#83 = ORGANIZATION ( 'NEURÈENÝ', 'NEURÈENÝ', '' ) ;
#84 = ORIENTED_EDGE ( 'NONE', *, *, #11, .F. ) ;
#85 = PERSON_AND_ORGANIZATION ( #39, #83 ) ;
#86 = CC_DESIGN_DATE_AND_TIME_ASSIGNMENT ( #229, #208, ( #217 ) ) ;
#87 = ORIENTED_EDGE ( 'NONE', *, *, #57, .T. ) ;
#88 = AXIS2_PLACEMENT_3D ( 'NONE', #141, #156, #27 ) ;
#89 = CIRCLE ( 'NONE', #149, 2.500000000000000000 ) ;
#90 = ADVANCED_FACE ( 'NONE', ( #30 ), #92, .T. ) ;
#91 = DIRECTION ( 'NONE',  ( 1.000000000000000000, 0.000000000000000000, 0.000000000000000000 ) ) ;
#92 = CYLINDRICAL_SURFACE ( 'NONE', #155, 1.250000000000000000 ) ;
#93 = VECTOR ( 'NONE', #166, 1000.000000000000000 ) ;
#94 = EDGE_CURVE ( 'NONE', #165, #178, #187, .T. ) ;
#95 = DIRECTION ( 'NONE',  ( -0.000000000000000000, -0.000000000000000000, -1.000000000000000000 ) ) ;
#96 = ADVANCED_FACE ( 'NONE', ( #253 ), #15, .T. ) ;
#97 = FACE_BOUND ( 'NONE', #204, .T. ) ;
#98 = VECTOR ( 'NONE', #95, 1000.000000000000000 ) ;
#99 = PERSON_AND_ORGANIZATION_ROLE ( 'creator' ) ;
#100 = ORIENTED_EDGE ( 'NONE', *, *, #168, .T. ) ;
#101 = ADVANCED_BREP_SHAPE_REPRESENTATION ( '8608', ( #146, #115 ), #123 ) ;
#102 = DIRECTION ( 'NONE',  ( 0.000000000000000000, 0.000000000000000000, 1.000000000000000000 ) ) ;
#103 = DIRECTION ( 'NONE',  ( 0.000000000000000000, 0.000000000000000000, 1.000000000000000000 ) ) ;
#104 = ADVANCED_FACE ( 'NONE', ( #111 ), #164, .T. ) ;
#105 = CARTESIAN_POINT ( 'NONE',  ( 2.500000000000000000, 3.061616997868383141E-16, 0.000000000000000000 ) ) ;
#106 = ORIENTED_EDGE ( 'NONE', *, *, #128, .F. ) ;
#107 = CARTESIAN_POINT ( 'NONE',  ( -2.500000000000000000, 0.000000000000000000, 2.000000000000000000 ) ) ;
#108 = CALENDAR_DATE ( 2023, 13, 2 ) ;
#109 = DIRECTION ( 'NONE',  ( -0.000000000000000000, -0.000000000000000000, -1.000000000000000000 ) ) ;
#110 = LOCAL_TIME ( 17, 40, 19.00000000000000000, #33 ) ;
#111 = FACE_OUTER_BOUND ( 'NONE', #207, .T. ) ;
#112 = DIRECTION ( 'NONE',  ( 1.000000000000000000, 0.000000000000000000, 0.000000000000000000 ) ) ;
#113 = DIRECTION ( 'NONE',  ( 0.000000000000000000, 0.000000000000000000, 1.000000000000000000 ) ) ;
#114 = DIRECTION ( 'NONE',  ( -0.000000000000000000, -0.000000000000000000, -1.000000000000000000 ) ) ;
#115 = AXIS2_PLACEMENT_3D ( 'NONE', #7, #103, #138 ) ;
#116 = PLANE ( 'NONE',  #38 ) ;
#117 = MECHANICAL_CONTEXT ( 'NONE', #233, 'mechanical' ) ;
#118 = CC_DESIGN_DATE_AND_TIME_ASSIGNMENT ( #157, #243, ( #216 ) ) ;
#119 = ORIENTED_EDGE ( 'NONE', *, *, #135, .F. ) ;
#120 = CIRCLE ( 'NONE', #210, 1.250000000000000000 ) ;
#121 = LOCAL_TIME ( 17, 40, 19.00000000000000000, #200 ) ;
#122 = CARTESIAN_POINT ( 'NONE',  ( 0.000000000000000000, 0.000000000000000000, 0.000000000000000000 ) ) ;
#123 =( GEOMETRIC_REPRESENTATION_CONTEXT ( 3 ) GLOBAL_UNCERTAINTY_ASSIGNED_CONTEXT ( ( #181 ) ) GLOBAL_UNIT_ASSIGNED_CONTEXT ( ( #76, #173, #37 ) ) REPRESENTATION_CONTEXT ( 'NONE', 'WORKASPACE' ) );
#124 = APPLICATION_PROTOCOL_DEFINITION ( 'international standard', 'config_control_design', 1994, #233 ) ;
#125 = APPROVAL ( #29, 'NEURÈENÝ' ) ;
#126 = APPROVAL_DATE_TIME ( #244, #143 ) ;
#127 = ORIENTED_EDGE ( 'NONE', *, *, #135, .T. ) ;
#128 = EDGE_CURVE ( 'NONE', #9, #165, #120, .T. ) ;
#129 = AXIS2_PLACEMENT_3D ( 'NONE', #209, #70, #91 ) ;
#130 = ORIENTED_EDGE ( 'NONE', *, *, #158, .T. ) ;
#131 = DIRECTION ( 'NONE',  ( -0.000000000000000000, -0.000000000000000000, -1.000000000000000000 ) ) ;
#132 = APPROVAL_DATE_TIME ( #26, #125 ) ;
#133 = CARTESIAN_POINT ( 'NONE',  ( 0.000000000000000000, 0.000000000000000000, 200.0000000000000000 ) ) ;
#134 = CC_DESIGN_PERSON_AND_ORGANIZATION_ASSIGNMENT ( #224, #42, ( #217 ) ) ;
#135 = EDGE_CURVE ( 'NONE', #16, #8, #89, .T. ) ;
#136 = DIRECTION ( 'NONE',  ( 1.000000000000000000, 0.000000000000000000, 0.000000000000000000 ) ) ;
#137 = DIRECTION ( 'NONE',  ( 1.000000000000000000, 0.000000000000000000, 0.000000000000000000 ) ) ;
#138 = DIRECTION ( 'NONE',  ( 1.000000000000000000, 0.000000000000000000, 0.000000000000000000 ) ) ;
#139 = ORIENTED_EDGE ( 'NONE', *, *, #147, .T. ) ;
#140 = COORDINATED_UNIVERSAL_TIME_OFFSET ( 1, 0, .AHEAD. ) ;
#141 = CARTESIAN_POINT ( 'NONE',  ( 0.000000000000000000, 0.000000000000000000, 2.000000000000000000 ) ) ;
#142 = APPROVAL_ROLE ( '' ) ;
#143 = APPROVAL ( #22, 'NEURÈENÝ' ) ;
#144 = DIRECTION ( 'NONE',  ( 0.000000000000000000, 0.000000000000000000, 1.000000000000000000 ) ) ;
#145 = DATE_AND_TIME ( #4, #121 ) ;
#146 = MANIFOLD_SOLID_BREP ( 'Pøidat vysunutím3', #234 ) ;
#147 = EDGE_CURVE ( 'NONE', #218, #185, #212, .T. ) ;
#148 = CYLINDRICAL_SURFACE ( 'NONE', #254, 2.500000000000000000 ) ;
#149 = AXIS2_PLACEMENT_3D ( 'NONE', #190, #113, #17 ) ;
#150 = DIRECTION ( 'NONE',  ( 0.000000000000000000, 0.000000000000000000, 1.000000000000000000 ) ) ;
#151 = CARTESIAN_POINT ( 'NONE',  ( -2.500000000000000000, 0.000000000000000000, 2.000000000000000000 ) ) ;
#152 = CC_DESIGN_APPROVAL ( #143, ( #196 ) ) ;
#153 = ORIENTED_EDGE ( 'NONE', *, *, #147, .F. ) ;
#154 = CARTESIAN_POINT ( 'NONE',  ( 0.000000000000000000, 0.000000000000000000, 0.000000000000000000 ) ) ;
#155 = AXIS2_PLACEMENT_3D ( 'NONE', #214, #109, #230 ) ;
#156 = DIRECTION ( 'NONE',  ( 0.000000000000000000, 0.000000000000000000, 1.000000000000000000 ) ) ;
#157 = DATE_AND_TIME ( #79, #14 ) ;
#158 = EDGE_CURVE ( 'NONE', #8, #16, #161, .T. ) ;
#159 = PERSON_AND_ORGANIZATION ( #39, #83 ) ;
#160 = DESIGN_CONTEXT ( 'detailed design', #247, 'design' ) ;
#161 = CIRCLE ( 'NONE', #197, 2.500000000000000000 ) ;
#162 = ORIENTED_EDGE ( 'NONE', *, *, #3, .T. ) ;
#163 = DIRECTION ( 'NONE',  ( -0.000000000000000000, -0.000000000000000000, -1.000000000000000000 ) ) ;
#164 = CYLINDRICAL_SURFACE ( 'NONE', #174, 1.250000000000000000 ) ;
#165 = VERTEX_POINT ( 'NONE', #172 ) ;
#166 = DIRECTION ( 'NONE',  ( -0.000000000000000000, -0.000000000000000000, -1.000000000000000000 ) ) ;
#167 = ADVANCED_FACE ( 'NONE', ( #97, #236 ), #116, .T. ) ;
#168 = EDGE_CURVE ( 'NONE', #185, #16, #73, .T. ) ;
#169 = CARTESIAN_POINT ( 'NONE',  ( 0.000000000000000000, 0.000000000000000000, 2.000000000000000000 ) ) ;
#170 = AXIS2_PLACEMENT_3D ( 'NONE', #122, #102, #183 ) ;
#171 = CARTESIAN_POINT ( 'NONE',  ( 0.000000000000000000, 0.000000000000000000, 200.0000000000000000 ) ) ;
#172 = CARTESIAN_POINT ( 'NONE',  ( -1.250000000000000000, 0.000000000000000000, 200.0000000000000000 ) ) ;
#173 =( NAMED_UNIT ( * ) PLANE_ANGLE_UNIT ( ) SI_UNIT ( $, .RADIAN. ) );
#174 = AXIS2_PLACEMENT_3D ( 'NONE', #133, #252, #213 ) ;
#175 = CC_DESIGN_SECURITY_CLASSIFICATION ( #217, ( #196 ) ) ;
#176 = CARTESIAN_POINT ( 'NONE',  ( 1.250000000000000000, 1.530808498934191571E-16, 2.000000000000000000 ) ) ;
#177 = APPROVAL ( #239, 'NEURÈENÝ' ) ;
#178 = VERTEX_POINT ( 'NONE', #20 ) ;
#179 = PERSON_AND_ORGANIZATION_ROLE ( 'design_supplier' ) ;
#180 = AXIS2_PLACEMENT_3D ( 'NONE', #171, #72, #137 ) ;
#181 = UNCERTAINTY_MEASURE_WITH_UNIT (LENGTH_MEASURE( 1.000000000000000082E-05 ), #76, 'distance_accuracy_value', 'NONE');
#182 = COORDINATED_UNIVERSAL_TIME_OFFSET ( 1, 0, .AHEAD. ) ;
#183 = DIRECTION ( 'NONE',  ( 1.000000000000000000, 0.000000000000000000, -0.000000000000000000 ) ) ;
#184 = CALENDAR_DATE ( 2023, 13, 2 ) ;
#185 = VERTEX_POINT ( 'NONE', #19 ) ;
#186 = PERSON_AND_ORGANIZATION ( #39, #83 ) ;
#187 = LINE ( 'NONE', #67, #191 ) ;
#188 = APPROVAL_PERSON_ORGANIZATION ( #186, #125, #69 ) ;
#189 = COORDINATED_UNIVERSAL_TIME_OFFSET ( 1, 0, .AHEAD. ) ;
#190 = CARTESIAN_POINT ( 'NONE',  ( 0.000000000000000000, 0.000000000000000000, 0.000000000000000000 ) ) ;
#191 = VECTOR ( 'NONE', #131, 1000.000000000000000 ) ;
#192 = CARTESIAN_POINT ( 'NONE',  ( 0.000000000000000000, 0.000000000000000000, 2.000000000000000000 ) ) ;
#193 = CC_DESIGN_PERSON_AND_ORGANIZATION_ASSIGNMENT ( #63, #99, ( #216 ) ) ;
#194 = EDGE_CURVE ( 'NONE', #165, #9, #46, .T. ) ;
#195 = DIRECTION ( 'NONE',  ( 0.000000000000000000, 0.000000000000000000, 1.000000000000000000 ) ) ;
#196 = PRODUCT_DEFINITION_FORMATION_WITH_SPECIFIED_SOURCE ( 'LIBOVOLNÝ', '', #50, .NOT_KNOWN. ) ;
#197 = AXIS2_PLACEMENT_3D ( 'NONE', #154, #195, #136 ) ;
#198 = PERSON_AND_ORGANIZATION ( #39, #83 ) ;
#199 = CIRCLE ( 'NONE', #88, 1.250000000000000000 ) ;
#200 = COORDINATED_UNIVERSAL_TIME_OFFSET ( 1, 0, .AHEAD. ) ;
#201 = DIRECTION ( 'NONE',  ( 1.000000000000000000, 0.000000000000000000, 0.000000000000000000 ) ) ;
#202 = PERSON_AND_ORGANIZATION_ROLE ( 'design_owner' ) ;
#203 = ORIENTED_EDGE ( 'NONE', *, *, #21, .F. ) ;
#204 = EDGE_LOOP ( 'NONE', ( #84, #48 ) ) ;
#205 = ORIENTED_EDGE ( 'NONE', *, *, #66, .F. ) ;
#206 = CARTESIAN_POINT ( 'NONE',  ( 0.000000000000000000, 0.000000000000000000, 2.000000000000000000 ) ) ;
#207 = EDGE_LOOP ( 'NONE', ( #106, #87, #162, #60 ) ) ;
#208 = DATE_TIME_ROLE ( 'classification_date' ) ;
#209 = CARTESIAN_POINT ( 'NONE',  ( 0.000000000000000000, 0.000000000000000000, 2.000000000000000000 ) ) ;
#210 = AXIS2_PLACEMENT_3D ( 'NONE', #35, #34, #112 ) ;
#211 = LINE ( 'NONE', #232, #93 ) ;
#212 = CIRCLE ( 'NONE', #2, 2.500000000000000000 ) ;
#213 = DIRECTION ( 'NONE',  ( -1.000000000000000000, 0.000000000000000000, 0.000000000000000000 ) ) ;
#214 = CARTESIAN_POINT ( 'NONE',  ( 0.000000000000000000, 0.000000000000000000, 200.0000000000000000 ) ) ;
#215 = ORIENTED_EDGE ( 'NONE', *, *, #57, .F. ) ;
#216 = PRODUCT_DEFINITION ( 'NEZNÁMÝ', '', #196, #160 ) ;
#217 = SECURITY_CLASSIFICATION ( '', '', #61 ) ;
#218 = VERTEX_POINT ( 'NONE', #151 ) ;
#219 = ADVANCED_FACE ( 'NONE', ( #220 ), #54, .T. ) ;
#220 = FACE_OUTER_BOUND ( 'NONE', #223, .T. ) ;
#221 = CARTESIAN_POINT ( 'NONE',  ( 2.500000000000000000, 3.061616997868383141E-16, 2.000000000000000000 ) ) ;
#222 = APPROVAL_ROLE ( '' ) ;
#223 = EDGE_LOOP ( 'NONE', ( #205, #100, #127, #203 ) ) ;
#224 = PERSON_AND_ORGANIZATION ( #39, #83 ) ;
#225 = CARTESIAN_POINT ( 'NONE',  ( 1.250000000000000000, 1.530808498934191571E-16, 200.0000000000000000 ) ) ;
#226 = ORIENTED_EDGE ( 'NONE', *, *, #11, .T. ) ;
#227 = ORIENTED_EDGE ( 'NONE', *, *, #194, .T. ) ;
#228 = CARTESIAN_POINT ( 'NONE',  ( 0.000000000000000000, 0.000000000000000000, 2.000000000000000000 ) ) ;
#229 = DATE_AND_TIME ( #108, #110 ) ;
#230 = DIRECTION ( 'NONE',  ( -1.000000000000000000, 0.000000000000000000, 0.000000000000000000 ) ) ;
#231 = APPROVAL_PERSON_ORGANIZATION ( #159, #177, #222 ) ;
#232 = CARTESIAN_POINT ( 'NONE',  ( 1.250000000000000000, 1.530808498934191571E-16, 200.0000000000000000 ) ) ;
#233 = APPLICATION_CONTEXT ( 'configuration controlled 3d designs of mechanical parts and assemblies' ) ;
#234 = CLOSED_SHELL ( 'NONE', ( #104, #219, #55, #167, #18, #90, #96 ) ) ;
#235 = CARTESIAN_POINT ( 'NONE',  ( 0.000000000000000000, 0.000000000000000000, 2.000000000000000000 ) ) ;
#236 = FACE_OUTER_BOUND ( 'NONE', #65, .T. ) ;
#237 = VERTEX_POINT ( 'NONE', #176 ) ;
#238 = CIRCLE ( 'NONE', #129, 2.500000000000000000 ) ;
#239 = APPROVAL_STATUS ( 'not_yet_approved' ) ;
#240 = FACE_OUTER_BOUND ( 'NONE', #62, .T. ) ;
#241 = PERSON_AND_ORGANIZATION ( #39, #83 ) ;
#242 = EDGE_LOOP ( 'NONE', ( #215, #25, #47, #226 ) ) ;
#243 = DATE_TIME_ROLE ( 'creation_date' ) ;
#244 = DATE_AND_TIME ( #184, #75 ) ;
#245 = PERSON_AND_ORGANIZATION_ROLE ( 'creator' ) ;
#246 = FACE_OUTER_BOUND ( 'NONE', #251, .T. ) ;
#247 = APPLICATION_CONTEXT ( 'configuration controlled 3d designs of mechanical parts and assemblies' ) ;
#248 = PRODUCT_RELATED_PRODUCT_CATEGORY ( 'detail', '', ( #50 ) ) ;
#249 = CALENDAR_DATE ( 2023, 13, 2 ) ;
#250 = DIRECTION ( 'NONE',  ( 0.000000000000000000, 0.000000000000000000, 1.000000000000000000 ) ) ;
#251 = EDGE_LOOP ( 'NONE', ( #41, #153, #45, #130 ) ) ;
#252 = DIRECTION ( 'NONE',  ( -0.000000000000000000, -0.000000000000000000, -1.000000000000000000 ) ) ;
#253 = FACE_OUTER_BOUND ( 'NONE', #6, .T. ) ;
#254 = AXIS2_PLACEMENT_3D ( 'NONE', #228, #51, #71 ) ;
#255 = DIRECTION ( 'NONE',  ( -1.000000000000000000, 0.000000000000000000, 0.000000000000000000 ) ) ;
ENDSEC;
END-ISO-10303-21;
