ISO-10303-21;
HEADER;
FILE_DESCRIPTION (( 'STEP AP203' ),
    '1' );
FILE_NAME ('73e0.STEP',
    '2023-02-13T09:47:48',
    ( '' ),
    ( '' ),
    'SwSTEP 2.0',
    'SolidWorks 2019',
    '' );
FILE_SCHEMA (( 'CONFIG_CONTROL_DESIGN' ));
ENDSEC;

DATA;
#1 = PERSON_AND_ORGANIZATION_ROLE ( 'creator' ) ;
#2 = EDGE_LOOP ( 'NONE', ( #76, #220 ) ) ;
#3 = ORIENTED_EDGE ( 'NONE', *, *, #209, .T. ) ;
#4 = COORDINATED_UNIVERSAL_TIME_OFFSET ( 1, 0, .AHEAD. ) ;
#5 = EDGE_CURVE ( 'NONE', #6, #240, #243, .T. ) ;
#6 = VERTEX_POINT ( 'NONE', #135 ) ;
#7 = APPROVAL_DATE_TIME ( #162, #168 ) ;
#8 = DIRECTION ( 'NONE',  ( 0.000000000000000000, 0.000000000000000000, 1.000000000000000000 ) ) ;
#9 = VECTOR ( 'NONE', #200, 1000.000000000000000 ) ;
#10 = CC_DESIGN_PERSON_AND_ORGANIZATION_ASSIGNMENT ( #26, #125, ( #160 ) ) ;
#11 = CARTESIAN_POINT ( 'NONE',  ( -7.750000000000000000, 0.000000000000000000, 7.000000000000000000 ) ) ;
#12 = DIRECTION ( 'NONE',  ( 1.000000000000000000, 0.000000000000000000, 0.000000000000000000 ) ) ;
#13 = ORIENTED_EDGE ( 'NONE', *, *, #19, .T. ) ;
#14 = ADVANCED_FACE ( 'NONE', ( #79 ), #197, .T. ) ;
#15 = AXIS2_PLACEMENT_3D ( 'NONE', #140, #18, #100 ) ;
#16 = FACE_OUTER_BOUND ( 'NONE', #149, .T. ) ;
#17 = CALENDAR_DATE ( 2023, 13, 2 ) ;
#18 = DIRECTION ( 'NONE',  ( 0.000000000000000000, 0.000000000000000000, 1.000000000000000000 ) ) ;
#19 = EDGE_CURVE ( 'NONE', #75, #192, #61, .T. ) ;
#20 = AXIS2_PLACEMENT_3D ( 'NONE', #29, #66, #51 ) ;
#21 = ORIENTED_EDGE ( 'NONE', *, *, #227, .T. ) ;
#22 = COORDINATED_UNIVERSAL_TIME_OFFSET ( 1, 0, .AHEAD. ) ;
#23 = CARTESIAN_POINT ( 'NONE',  ( 7.750000000000000000, 9.491012693391987787E-16, 7.000000000000000000 ) ) ;
#24 = CIRCLE ( 'NONE', #231, 7.750000000000000000 ) ;
#25 = DIRECTION ( 'NONE',  ( -0.000000000000000000, -0.000000000000000000, -1.000000000000000000 ) ) ;
#26 = PERSON_AND_ORGANIZATION ( #81, #63 ) ;
#27 = PLANE ( 'NONE',  #91 ) ;
#28 = FACE_OUTER_BOUND ( 'NONE', #34, .T. ) ;
#29 = CARTESIAN_POINT ( 'NONE',  ( 0.000000000000000000, 0.000000000000000000, 500.0000000000000000 ) ) ;
#30 = PRODUCT_DEFINITION_SHAPE ( 'NONE', 'NONE',  #83 ) ;
#31 = DIRECTION ( 'NONE',  ( 0.000000000000000000, 0.000000000000000000, 1.000000000000000000 ) ) ;
#32 =( NAMED_UNIT ( * ) PLANE_ANGLE_UNIT ( ) SI_UNIT ( $, .RADIAN. ) );
#33 = APPLICATION_PROTOCOL_DEFINITION ( 'international standard', 'config_control_design', 1994, #147 ) ;
#34 = EDGE_LOOP ( 'NONE', ( #96, #114 ) ) ;
#35 = VECTOR ( 'NONE', #44, 1000.000000000000000 ) ;
#36 = PERSON_AND_ORGANIZATION ( #81, #63 ) ;
#37 = DIRECTION ( 'NONE',  ( -0.000000000000000000, -0.000000000000000000, -1.000000000000000000 ) ) ;
#38 = ORIENTED_EDGE ( 'NONE', *, *, #42, .T. ) ;
#39 = AXIS2_PLACEMENT_3D ( 'NONE', #118, #216, #57 ) ;
#40 = DIRECTION ( 'NONE',  ( 1.000000000000000000, 0.000000000000000000, -0.000000000000000000 ) ) ;
#41 = DATE_AND_TIME ( #78, #233 ) ;
#42 = EDGE_CURVE ( 'NONE', #240, #150, #137, .T. ) ;
#43 = PERSON_AND_ORGANIZATION ( #81, #63 ) ;
#44 = DIRECTION ( 'NONE',  ( -0.000000000000000000, -0.000000000000000000, -1.000000000000000000 ) ) ;
#45 = DIRECTION ( 'NONE',  ( -0.000000000000000000, -0.000000000000000000, -1.000000000000000000 ) ) ;
#46 = CC_DESIGN_SECURITY_CLASSIFICATION ( #171, ( #160 ) ) ;
#47 = PERSON_AND_ORGANIZATION ( #81, #63 ) ;
#48 = CARTESIAN_POINT ( 'NONE',  ( -11.00000000000000000, 0.000000000000000000, 7.000000000000000000 ) ) ;
#49 = CARTESIAN_POINT ( 'NONE',  ( 0.000000000000000000, 0.000000000000000000, 7.000000000000000000 ) ) ;
#50 = EDGE_CURVE ( 'NONE', #101, #190, #228, .T. ) ;
#51 = DIRECTION ( 'NONE',  ( 1.000000000000000000, 0.000000000000000000, 0.000000000000000000 ) ) ;
#52 = ORIENTED_EDGE ( 'NONE', *, *, #5, .F. ) ;
#53 = ORIENTED_EDGE ( 'NONE', *, *, #42, .F. ) ;
#54 = DATE_AND_TIME ( #56, #128 ) ;
#55 = LOCAL_TIME ( 10, 47, 48.00000000000000000, #22 ) ;
#56 = CALENDAR_DATE ( 2023, 13, 2 ) ;
#57 = DIRECTION ( 'NONE',  ( 1.000000000000000000, 0.000000000000000000, 0.000000000000000000 ) ) ;
#58 = PERSON_AND_ORGANIZATION ( #81, #63 ) ;
#59 = MECHANICAL_CONTEXT ( 'NONE', #147, 'mechanical' ) ;
#60 = EDGE_LOOP ( 'NONE', ( #242, #38, #180, #134 ) ) ;
#61 = CIRCLE ( 'NONE', #39, 11.00000000000000000 ) ;
#62 = ADVANCED_FACE ( 'NONE', ( #213 ), #248, .T. ) ;
#63 = ORGANIZATION ( 'NEURÈENÝ', 'NEURÈENÝ', '' ) ;
#64 = DIRECTION ( 'NONE',  ( 1.000000000000000000, 0.000000000000000000, 0.000000000000000000 ) ) ;
#65 = VECTOR ( 'NONE', #148, 1000.000000000000000 ) ;
#66 = DIRECTION ( 'NONE',  ( 0.000000000000000000, 0.000000000000000000, 1.000000000000000000 ) ) ;
#67 = AXIS2_PLACEMENT_3D ( 'NONE', #229, #31, #187 ) ;
#68 = EDGE_LOOP ( 'NONE', ( #156, #77, #98, #133 ) ) ;
#69 = LINE ( 'NONE', #254, #65 ) ;
#70 = APPROVAL ( #97, 'NEURÈENÝ' ) ;
#71 = AXIS2_PLACEMENT_3D ( 'NONE', #181, #244, #64 ) ;
#72 = DIRECTION ( 'NONE',  ( -1.000000000000000000, 0.000000000000000000, 0.000000000000000000 ) ) ;
#73 = CIRCLE ( 'NONE', #67, 11.00000000000000000 ) ;
#74 = APPLICATION_PROTOCOL_DEFINITION ( 'international standard', 'config_control_design', 1994, #130 ) ;
#75 = VERTEX_POINT ( 'NONE', #203 ) ;
#76 = ORIENTED_EDGE ( 'NONE', *, *, #227, .F. ) ;
#77 = ORIENTED_EDGE ( 'NONE', *, *, #50, .F. ) ;
#78 = CALENDAR_DATE ( 2023, 13, 2 ) ;
#79 = FACE_OUTER_BOUND ( 'NONE', #176, .T. ) ;
#80 = AXIS2_PLACEMENT_3D ( 'NONE', #223, #25, #251 ) ;
#81 = PERSON ( 'NEURÈENÝ', 'NEURÈENÝ', 'NEURÈENÝ', ('NEURÈENÝ'), ('NEURÈENÝ'), ('NEURÈENÝ') ) ;
#82 = LINE ( 'NONE', #145, #35 ) ;
#83 = PRODUCT_DEFINITION ( 'NEZNÁMÝ', '', #160, #84 ) ;
#84 = DESIGN_CONTEXT ( 'detailed design', #130, 'design' ) ;
#85 = CIRCLE ( 'NONE', #117, 7.750000000000000000 ) ;
#86 = CARTESIAN_POINT ( 'NONE',  ( -11.00000000000000000, 0.000000000000000000, 7.000000000000000000 ) ) ;
#87 = DIRECTION ( 'NONE',  ( -0.000000000000000000, -0.000000000000000000, -1.000000000000000000 ) ) ;
#88 = ADVANCED_FACE ( 'NONE', ( #28 ), #27, .F. ) ;
#89 =( LENGTH_UNIT ( ) NAMED_UNIT ( * ) SI_UNIT ( .MILLI., .METRE. ) );
#90 = CARTESIAN_POINT ( 'NONE',  ( 11.00000000000000000, 1.347111479062088405E-15, 7.000000000000000000 ) ) ;
#91 = AXIS2_PLACEMENT_3D ( 'NONE', #201, #183, #184 ) ;
#92 = CARTESIAN_POINT ( 'NONE',  ( 0.000000000000000000, 0.000000000000000000, 7.000000000000000000 ) ) ;
#93 = VERTEX_POINT ( 'NONE', #11 ) ;
#94 = CC_DESIGN_APPROVAL ( #235, ( #83 ) ) ;
#95 = DATE_AND_TIME ( #17, #154 ) ;
#96 = ORIENTED_EDGE ( 'NONE', *, *, #177, .F. ) ;
#97 = APPROVAL_STATUS ( 'not_yet_approved' ) ;
#98 = ORIENTED_EDGE ( 'NONE', *, *, #141, .T. ) ;
#99 = ORIENTED_EDGE ( 'NONE', *, *, #107, .T. ) ;
#100 = DIRECTION ( 'NONE',  ( 1.000000000000000000, 0.000000000000000000, 0.000000000000000000 ) ) ;
#101 = VERTEX_POINT ( 'NONE', #86 ) ;
#102 = AXIS2_PLACEMENT_3D ( 'NONE', #119, #103, #106 ) ;
#103 = DIRECTION ( 'NONE',  ( -0.000000000000000000, -0.000000000000000000, -1.000000000000000000 ) ) ;
#104 = APPROVAL_STATUS ( 'not_yet_approved' ) ;
#105 = UNCERTAINTY_MEASURE_WITH_UNIT (LENGTH_MEASURE( 1.000000000000000082E-05 ), #89, 'distance_accuracy_value', 'NONE');
#106 = DIRECTION ( 'NONE',  ( -1.000000000000000000, 0.000000000000000000, 0.000000000000000000 ) ) ;
#107 = EDGE_CURVE ( 'NONE', #190, #75, #82, .T. ) ;
#108 = DIRECTION ( 'NONE',  ( 1.000000000000000000, 0.000000000000000000, -0.000000000000000000 ) ) ;
#109 = CARTESIAN_POINT ( 'NONE',  ( 0.000000000000000000, 0.000000000000000000, 7.000000000000000000 ) ) ;
#110 = CARTESIAN_POINT ( 'NONE',  ( 0.000000000000000000, 0.000000000000000000, 7.000000000000000000 ) ) ;
#111 = CARTESIAN_POINT ( 'NONE',  ( 0.000000000000000000, 0.000000000000000000, 7.000000000000000000 ) ) ;
#112 = CC_DESIGN_PERSON_AND_ORGANIZATION_ASSIGNMENT ( #47, #165, ( #160 ) ) ;
#113 = EDGE_LOOP ( 'NONE', ( #53, #52, #3, #21 ) ) ;
#114 = ORIENTED_EDGE ( 'NONE', *, *, #19, .F. ) ;
#115 = ADVANCED_FACE ( 'NONE', ( #142 ), #124, .T. ) ;
#116 = CARTESIAN_POINT ( 'NONE',  ( 0.000000000000000000, 0.000000000000000000, 500.0000000000000000 ) ) ;
#117 = AXIS2_PLACEMENT_3D ( 'NONE', #109, #211, #129 ) ;
#118 = CARTESIAN_POINT ( 'NONE',  ( 0.000000000000000000, 0.000000000000000000, 0.000000000000000000 ) ) ;
#119 = CARTESIAN_POINT ( 'NONE',  ( 0.000000000000000000, 0.000000000000000000, 500.0000000000000000 ) ) ;
#120 = LINE ( 'NONE', #48, #9 ) ;
#121 = PRODUCT_RELATED_PRODUCT_CATEGORY ( 'detail', '', ( #252 ) ) ;
#122 = CIRCLE ( 'NONE', #20, 7.750000000000000000 ) ;
#123 = CC_DESIGN_APPROVAL ( #70, ( #160 ) ) ;
#124 = CYLINDRICAL_SURFACE ( 'NONE', #80, 7.750000000000000000 ) ;
#125 = PERSON_AND_ORGANIZATION_ROLE ( 'design_supplier' ) ;
#126 = CC_DESIGN_DATE_AND_TIME_ASSIGNMENT ( #54, #218, ( #83 ) ) ;
#127 = CARTESIAN_POINT ( 'NONE',  ( 0.000000000000000000, 0.000000000000000000, 7.000000000000000000 ) ) ;
#128 = LOCAL_TIME ( 10, 47, 48.00000000000000000, #236 ) ;
#129 = DIRECTION ( 'NONE',  ( 1.000000000000000000, 0.000000000000000000, 0.000000000000000000 ) ) ;
#130 = APPLICATION_CONTEXT ( 'configuration controlled 3d designs of mechanical parts and assemblies' ) ;
#131 = PLANE ( 'NONE',  #167 ) ;
#132 = CARTESIAN_POINT ( 'NONE',  ( 7.750000000000000000, 9.491012693391987787E-16, 500.0000000000000000 ) ) ;
#133 = ORIENTED_EDGE ( 'NONE', *, *, #177, .T. ) ;
#134 = ORIENTED_EDGE ( 'NONE', *, *, #209, .F. ) ;
#135 = CARTESIAN_POINT ( 'NONE',  ( -7.750000000000000000, 0.000000000000000000, 500.0000000000000000 ) ) ;
#136 = COORDINATED_UNIVERSAL_TIME_OFFSET ( 1, 0, .AHEAD. ) ;
#137 = LINE ( 'NONE', #219, #186 ) ;
#138 = ADVANCED_FACE ( 'NONE', ( #221 ), #198, .T. ) ;
#139 = ORIENTED_EDGE ( 'NONE', *, *, #5, .T. ) ;
#140 = CARTESIAN_POINT ( 'NONE',  ( 0.000000000000000000, 0.000000000000000000, 0.000000000000000000 ) ) ;
#141 = EDGE_CURVE ( 'NONE', #101, #192, #120, .T. ) ;
#142 = FACE_OUTER_BOUND ( 'NONE', #113, .T. ) ;
#143 = DATE_AND_TIME ( #144, #155 ) ;
#144 = CALENDAR_DATE ( 2023, 13, 2 ) ;
#145 = CARTESIAN_POINT ( 'NONE',  ( 11.00000000000000000, 1.347111479062088405E-15, 7.000000000000000000 ) ) ;
#146 = CLOSED_SHELL ( 'NONE', ( #138, #164, #62, #173, #88, #115, #14 ) ) ;
#147 = APPLICATION_CONTEXT ( 'configuration controlled 3d designs of mechanical parts and assemblies' ) ;
#148 = DIRECTION ( 'NONE',  ( -0.000000000000000000, -0.000000000000000000, -1.000000000000000000 ) ) ;
#149 = EDGE_LOOP ( 'NONE', ( #174, #255 ) ) ;
#150 = VERTEX_POINT ( 'NONE', #23 ) ;
#151 = PERSON_AND_ORGANIZATION_ROLE ( 'design_owner' ) ;
#152 = CC_DESIGN_PERSON_AND_ORGANIZATION_ASSIGNMENT ( #43, #246, ( #171 ) ) ;
#153 = ORIENTED_EDGE ( 'NONE', *, *, #230, .T. ) ;
#154 = LOCAL_TIME ( 10, 47, 48.00000000000000000, #136 ) ;
#155 = LOCAL_TIME ( 10, 47, 48.00000000000000000, #185 ) ;
#156 = ORIENTED_EDGE ( 'NONE', *, *, #107, .F. ) ;
#157 =( NAMED_UNIT ( * ) SI_UNIT ( $, .STERADIAN. ) SOLID_ANGLE_UNIT ( ) );
#158 = EDGE_LOOP ( 'NONE', ( #212, #99, #13, #159 ) ) ;
#159 = ORIENTED_EDGE ( 'NONE', *, *, #141, .F. ) ;
#160 = PRODUCT_DEFINITION_FORMATION_WITH_SPECIFIED_SOURCE ( 'LIBOVOLNÝ', '', #252, .NOT_KNOWN. ) ;
#161 = CC_DESIGN_PERSON_AND_ORGANIZATION_ASSIGNMENT ( #58, #1, ( #83 ) ) ;
#162 = DATE_AND_TIME ( #163, #55 ) ;
#163 = CALENDAR_DATE ( 2023, 13, 2 ) ;
#164 = ADVANCED_FACE ( 'NONE', ( #232 ), #188, .T. ) ;
#165 = PERSON_AND_ORGANIZATION_ROLE ( 'creator' ) ;
#166 = DIRECTION ( 'NONE',  ( -1.000000000000000000, 0.000000000000000000, 0.000000000000000000 ) ) ;
#167 = AXIS2_PLACEMENT_3D ( 'NONE', #92, #207, #108 ) ;
#168 = APPROVAL ( #104, 'NEURÈENÝ' ) ;
#169 =( GEOMETRIC_REPRESENTATION_CONTEXT ( 3 ) GLOBAL_UNCERTAINTY_ASSIGNED_CONTEXT ( ( #105 ) ) GLOBAL_UNIT_ASSIGNED_CONTEXT ( ( #89, #32, #157 ) ) REPRESENTATION_CONTEXT ( 'NONE', 'WORKASPACE' ) );
#170 = DIRECTION ( 'NONE',  ( 0.000000000000000000, 0.000000000000000000, 1.000000000000000000 ) ) ;
#171 = SECURITY_CLASSIFICATION ( '', '', #226 ) ;
#172 = CARTESIAN_POINT ( 'NONE',  ( -11.00000000000000000, 0.000000000000000000, 0.000000000000000000 ) ) ;
#173 = ADVANCED_FACE ( 'NONE', ( #210, #16 ), #131, .T. ) ;
#174 = ORIENTED_EDGE ( 'NONE', *, *, #50, .T. ) ;
#175 = APPROVAL_DATE_TIME ( #95, #235 ) ;
#176 = EDGE_LOOP ( 'NONE', ( #139, #153 ) ) ;
#177 = EDGE_CURVE ( 'NONE', #192, #75, #73, .T. ) ;
#178 = APPROVAL_ROLE ( '' ) ;
#179 = AXIS2_PLACEMENT_3D ( 'NONE', #110, #189, #253 ) ;
#180 = ORIENTED_EDGE ( 'NONE', *, *, #249, .T. ) ;
#181 = CARTESIAN_POINT ( 'NONE',  ( 0.000000000000000000, 0.000000000000000000, 7.000000000000000000 ) ) ;
#182 = EDGE_CURVE ( 'NONE', #190, #101, #215, .T. ) ;
#183 = DIRECTION ( 'NONE',  ( 0.000000000000000000, 0.000000000000000000, 1.000000000000000000 ) ) ;
#184 = DIRECTION ( 'NONE',  ( 1.000000000000000000, 0.000000000000000000, -0.000000000000000000 ) ) ;
#185 = COORDINATED_UNIVERSAL_TIME_OFFSET ( 1, 0, .AHEAD. ) ;
#186 = VECTOR ( 'NONE', #37, 1000.000000000000000 ) ;
#187 = DIRECTION ( 'NONE',  ( 1.000000000000000000, 0.000000000000000000, 0.000000000000000000 ) ) ;
#188 = CYLINDRICAL_SURFACE ( 'NONE', #245, 11.00000000000000000 ) ;
#189 = DIRECTION ( 'NONE',  ( 0.000000000000000000, 0.000000000000000000, 1.000000000000000000 ) ) ;
#190 = VERTEX_POINT ( 'NONE', #90 ) ;
#191 = PERSON_AND_ORGANIZATION ( #81, #63 ) ;
#192 = VERTEX_POINT ( 'NONE', #172 ) ;
#193 = DIRECTION ( 'NONE',  ( 0.000000000000000000, 0.000000000000000000, 1.000000000000000000 ) ) ;
#194 = AXIS2_PLACEMENT_3D ( 'NONE', #195, #193, #40 ) ;
#195 = CARTESIAN_POINT ( 'NONE',  ( 0.000000000000000000, 0.000000000000000000, 500.0000000000000000 ) ) ;
#196 = MANIFOLD_SOLID_BREP ( 'Pøidat vysunutím3', #146 ) ;
#197 = PLANE ( 'NONE',  #194 ) ;
#198 = CYLINDRICAL_SURFACE ( 'NONE', #102, 7.750000000000000000 ) ;
#199 = PERSON_AND_ORGANIZATION ( #81, #63 ) ;
#200 = DIRECTION ( 'NONE',  ( -0.000000000000000000, -0.000000000000000000, -1.000000000000000000 ) ) ;
#201 = CARTESIAN_POINT ( 'NONE',  ( 0.000000000000000000, 0.000000000000000000, 0.000000000000000000 ) ) ;
#202 = APPROVAL_ROLE ( '' ) ;
#203 = CARTESIAN_POINT ( 'NONE',  ( 11.00000000000000000, 1.347111479062088405E-15, 0.000000000000000000 ) ) ;
#204 = APPROVAL_PERSON_ORGANIZATION ( #237, #235, #234 ) ;
#205 = CC_DESIGN_APPROVAL ( #168, ( #171 ) ) ;
#206 = CC_DESIGN_PERSON_AND_ORGANIZATION_ASSIGNMENT ( #191, #151, ( #252 ) ) ;
#207 = DIRECTION ( 'NONE',  ( 0.000000000000000000, 0.000000000000000000, 1.000000000000000000 ) ) ;
#208 = AXIS2_PLACEMENT_3D ( 'NONE', #116, #8, #239 ) ;
#209 = EDGE_CURVE ( 'NONE', #6, #93, #69, .T. ) ;
#210 = FACE_BOUND ( 'NONE', #2, .T. ) ;
#211 = DIRECTION ( 'NONE',  ( 0.000000000000000000, 0.000000000000000000, 1.000000000000000000 ) ) ;
#212 = ORIENTED_EDGE ( 'NONE', *, *, #182, .F. ) ;
#213 = FACE_OUTER_BOUND ( 'NONE', #68, .T. ) ;
#214 = AXIS2_PLACEMENT_3D ( 'NONE', #127, #45, #166 ) ;
#215 = CIRCLE ( 'NONE', #179, 11.00000000000000000 ) ;
#216 = DIRECTION ( 'NONE',  ( 0.000000000000000000, 0.000000000000000000, 1.000000000000000000 ) ) ;
#217 = CC_DESIGN_DATE_AND_TIME_ASSIGNMENT ( #143, #225, ( #171 ) ) ;
#218 = DATE_TIME_ROLE ( 'creation_date' ) ;
#219 = CARTESIAN_POINT ( 'NONE',  ( 7.750000000000000000, 9.491012693391987787E-16, 500.0000000000000000 ) ) ;
#220 = ORIENTED_EDGE ( 'NONE', *, *, #249, .F. ) ;
#221 = FACE_OUTER_BOUND ( 'NONE', #60, .T. ) ;
#222 = APPROVAL_DATE_TIME ( #41, #70 ) ;
#223 = CARTESIAN_POINT ( 'NONE',  ( 0.000000000000000000, 0.000000000000000000, 500.0000000000000000 ) ) ;
#224 = SHAPE_DEFINITION_REPRESENTATION ( #30, #250 ) ;
#225 = DATE_TIME_ROLE ( 'classification_date' ) ;
#226 = SECURITY_CLASSIFICATION_LEVEL ( 'unclassified' ) ;
#227 = EDGE_CURVE ( 'NONE', #93, #150, #24, .T. ) ;
#228 = CIRCLE ( 'NONE', #71, 11.00000000000000000 ) ;
#229 = CARTESIAN_POINT ( 'NONE',  ( 0.000000000000000000, 0.000000000000000000, 0.000000000000000000 ) ) ;
#230 = EDGE_CURVE ( 'NONE', #240, #6, #122, .T. ) ;
#231 = AXIS2_PLACEMENT_3D ( 'NONE', #111, #170, #12 ) ;
#232 = FACE_OUTER_BOUND ( 'NONE', #158, .T. ) ;
#233 = LOCAL_TIME ( 10, 47, 48.00000000000000000, #4 ) ;
#234 = APPROVAL_ROLE ( '' ) ;
#235 = APPROVAL ( #241, 'NEURÈENÝ' ) ;
#236 = COORDINATED_UNIVERSAL_TIME_OFFSET ( 1, 0, .AHEAD. ) ;
#237 = PERSON_AND_ORGANIZATION ( #81, #63 ) ;
#238 = APPROVAL_PERSON_ORGANIZATION ( #199, #168, #202 ) ;
#239 = DIRECTION ( 'NONE',  ( 1.000000000000000000, 0.000000000000000000, 0.000000000000000000 ) ) ;
#240 = VERTEX_POINT ( 'NONE', #132 ) ;
#241 = APPROVAL_STATUS ( 'not_yet_approved' ) ;
#242 = ORIENTED_EDGE ( 'NONE', *, *, #230, .F. ) ;
#243 = CIRCLE ( 'NONE', #208, 7.750000000000000000 ) ;
#244 = DIRECTION ( 'NONE',  ( 0.000000000000000000, 0.000000000000000000, 1.000000000000000000 ) ) ;
#245 = AXIS2_PLACEMENT_3D ( 'NONE', #49, #87, #72 ) ;
#246 = PERSON_AND_ORGANIZATION_ROLE ( 'classification_officer' ) ;
#247 = APPROVAL_PERSON_ORGANIZATION ( #36, #70, #178 ) ;
#248 = CYLINDRICAL_SURFACE ( 'NONE', #214, 11.00000000000000000 ) ;
#249 = EDGE_CURVE ( 'NONE', #150, #93, #85, .T. ) ;
#250 = ADVANCED_BREP_SHAPE_REPRESENTATION ( '73e0', ( #196, #15 ), #169 ) ;
#251 = DIRECTION ( 'NONE',  ( -1.000000000000000000, 0.000000000000000000, 0.000000000000000000 ) ) ;
#252 = PRODUCT ( '73e0', '73e0', '', ( #59 ) ) ;
#253 = DIRECTION ( 'NONE',  ( 1.000000000000000000, 0.000000000000000000, 0.000000000000000000 ) ) ;
#254 = CARTESIAN_POINT ( 'NONE',  ( -7.750000000000000000, 0.000000000000000000, 500.0000000000000000 ) ) ;
#255 = ORIENTED_EDGE ( 'NONE', *, *, #182, .T. ) ;
ENDSEC;
END-ISO-10303-21;
