ISO-10303-21;
HEADER;
FILE_DESCRIPTION (( 'STEP AP203' ),
    '1' );
FILE_NAME ('9bf9.STEP',
    '2023-02-13T12:25:36',
    ( '' ),
    ( '' ),
    'SwSTEP 2.0',
    'SolidWorks 2019',
    '' );
FILE_SCHEMA (( 'CONFIG_CONTROL_DESIGN' ));
ENDSEC;

DATA;
#1 = DIRECTION ( 'NONE',  ( -0.000000000000000000, -0.000000000000000000, -1.000000000000000000 ) ) ;
#2 = EDGE_CURVE ( 'NONE', #136, #66, #107, .T. ) ;
#3 = ADVANCED_FACE ( 'NONE', ( #78 ), #68, .T. ) ;
#4 = CIRCLE ( 'NONE', #67, 9.000000000000000000 ) ;
#5 = ORIENTED_EDGE ( 'NONE', *, *, #205, .F. ) ;
#6 = APPROVAL_DATE_TIME ( #100, #22 ) ;
#7 = ORIENTED_EDGE ( 'NONE', *, *, #197, .T. ) ;
#8 = ORIENTED_EDGE ( 'NONE', *, *, #205, .T. ) ;
#9 = DIRECTION ( 'NONE',  ( 0.000000000000000000, 0.000000000000000000, 1.000000000000000000 ) ) ;
#10 = CARTESIAN_POINT ( 'NONE',  ( -6.000000000000000888, 0.000000000000000000, 7.000000000000000000 ) ) ;
#11 = EDGE_CURVE ( 'NONE', #222, #61, #55, .T. ) ;
#12 = DATE_AND_TIME ( #112, #69 ) ;
#13 = CARTESIAN_POINT ( 'NONE',  ( 0.000000000000000000, 0.000000000000000000, 7.000000000000000000 ) ) ;
#14 = AXIS2_PLACEMENT_3D ( 'NONE', #178, #95, #238 ) ;
#15 = PRODUCT ( '9bf9', '9bf9', '', ( #189 ) ) ;
#16 = CALENDAR_DATE ( 2023, 13, 2 ) ;
#17 = CARTESIAN_POINT ( 'NONE',  ( 0.000000000000000000, 0.000000000000000000, 0.000000000000000000 ) ) ;
#18 = EDGE_LOOP ( 'NONE', ( #219, #186 ) ) ;
#19 = CARTESIAN_POINT ( 'NONE',  ( -9.000000000000000000, 0.000000000000000000, 7.000000000000000000 ) ) ;
#20 = DIRECTION ( 'NONE',  ( 1.000000000000000000, 0.000000000000000000, 0.000000000000000000 ) ) ;
#21 = DIRECTION ( 'NONE',  ( -1.000000000000000000, 0.000000000000000000, 0.000000000000000000 ) ) ;
#22 = APPROVAL ( #195, 'NEURÈENÝ' ) ;
#23 = ORIENTED_EDGE ( 'NONE', *, *, #187, .T. ) ;
#24 = ORIENTED_EDGE ( 'NONE', *, *, #99, .F. ) ;
#25 = DIRECTION ( 'NONE',  ( 1.000000000000000000, 0.000000000000000000, 0.000000000000000000 ) ) ;
#26 = PRODUCT_RELATED_PRODUCT_CATEGORY ( 'detail', '', ( #15 ) ) ;
#27 = AXIS2_PLACEMENT_3D ( 'NONE', #207, #9, #25 ) ;
#28 = PERSON_AND_ORGANIZATION_ROLE ( 'classification_officer' ) ;
#29 = CALENDAR_DATE ( 2023, 13, 2 ) ;
#30 = COORDINATED_UNIVERSAL_TIME_OFFSET ( 1, 0, .AHEAD. ) ;
#31 = PERSON_AND_ORGANIZATION_ROLE ( 'design_supplier' ) ;
#32 = EDGE_CURVE ( 'NONE', #61, #222, #239, .T. ) ;
#33 = DIRECTION ( 'NONE',  ( -1.000000000000000000, 0.000000000000000000, 0.000000000000000000 ) ) ;
#34 = ORIENTED_EDGE ( 'NONE', *, *, #251, .F. ) ;
#35 = ORIENTED_EDGE ( 'NONE', *, *, #2, .F. ) ;
#36 = ORIENTED_EDGE ( 'NONE', *, *, #187, .F. ) ;
#37 = VECTOR ( 'NONE', #74, 1000.000000000000000 ) ;
#38 = AXIS2_PLACEMENT_3D ( 'NONE', #48, #129, #109 ) ;
#39 = CYLINDRICAL_SURFACE ( 'NONE', #62, 9.000000000000000000 ) ;
#40 = ORIENTED_EDGE ( 'NONE', *, *, #197, .F. ) ;
#41 = FACE_BOUND ( 'NONE', #18, .T. ) ;
#42 = AXIS2_PLACEMENT_3D ( 'NONE', #201, #163, #33 ) ;
#43 = CC_DESIGN_PERSON_AND_ORGANIZATION_ASSIGNMENT ( #172, #151, ( #193 ) ) ;
#44 = SECURITY_CLASSIFICATION ( '', '', #149 ) ;
#45 = APPLICATION_PROTOCOL_DEFINITION ( 'international standard', 'config_control_design', 1994, #216 ) ;
#46 =( GEOMETRIC_REPRESENTATION_CONTEXT ( 3 ) GLOBAL_UNCERTAINTY_ASSIGNED_CONTEXT ( ( #110 ) ) GLOBAL_UNIT_ASSIGNED_CONTEXT ( ( #103, #206, #247 ) ) REPRESENTATION_CONTEXT ( 'NONE', 'WORKASPACE' ) );
#47 = DIRECTION ( 'NONE',  ( 0.000000000000000000, 0.000000000000000000, 1.000000000000000000 ) ) ;
#48 = CARTESIAN_POINT ( 'NONE',  ( 0.000000000000000000, 0.000000000000000000, 0.000000000000000000 ) ) ;
#49 = APPROVAL ( #170, 'NEURÈENÝ' ) ;
#50 = APPROVAL_STATUS ( 'not_yet_approved' ) ;
#51 = DIRECTION ( 'NONE',  ( -0.000000000000000000, -0.000000000000000000, -1.000000000000000000 ) ) ;
#52 = CC_DESIGN_DATE_AND_TIME_ASSIGNMENT ( #192, #231, ( #44 ) ) ;
#53 = CALENDAR_DATE ( 2023, 13, 2 ) ;
#54 = CARTESIAN_POINT ( 'NONE',  ( 6.000000000000000888, 7.347880794884120722E-16, 160.0000000000000000 ) ) ;
#55 = CIRCLE ( 'NONE', #230, 6.000000000000000888 ) ;
#56 = DATE_AND_TIME ( #29, #190 ) ;
#57 = CARTESIAN_POINT ( 'NONE',  ( 0.000000000000000000, 0.000000000000000000, 7.000000000000000000 ) ) ;
#58 = PERSON_AND_ORGANIZATION ( #234, #135 ) ;
#59 = ADVANCED_FACE ( 'NONE', ( #236 ), #89, .T. ) ;
#60 = FACE_OUTER_BOUND ( 'NONE', #217, .T. ) ;
#61 = VERTEX_POINT ( 'NONE', #196 ) ;
#62 = AXIS2_PLACEMENT_3D ( 'NONE', #65, #140, #21 ) ;
#63 = SHAPE_DEFINITION_REPRESENTATION ( #209, #199 ) ;
#64 = LINE ( 'NONE', #180, #240 ) ;
#65 = CARTESIAN_POINT ( 'NONE',  ( 0.000000000000000000, 0.000000000000000000, 7.000000000000000000 ) ) ;
#66 = VERTEX_POINT ( 'NONE', #71 ) ;
#67 = AXIS2_PLACEMENT_3D ( 'NONE', #70, #47, #169 ) ;
#68 = CYLINDRICAL_SURFACE ( 'NONE', #83, 6.000000000000000888 ) ;
#69 = LOCAL_TIME ( 13, 25, 36.00000000000000000, #30 ) ;
#70 = CARTESIAN_POINT ( 'NONE',  ( 0.000000000000000000, 0.000000000000000000, 0.000000000000000000 ) ) ;
#71 = CARTESIAN_POINT ( 'NONE',  ( -6.000000000000000888, 0.000000000000000000, 160.0000000000000000 ) ) ;
#72 = EDGE_CURVE ( 'NONE', #202, #82, #150, .T. ) ;
#73 = CALENDAR_DATE ( 2023, 13, 2 ) ;
#74 = DIRECTION ( 'NONE',  ( -0.000000000000000000, -0.000000000000000000, -1.000000000000000000 ) ) ;
#75 = AXIS2_PLACEMENT_3D ( 'NONE', #57, #214, #218 ) ;
#76 = DATE_TIME_ROLE ( 'creation_date' ) ;
#77 = CARTESIAN_POINT ( 'NONE',  ( 0.000000000000000000, 0.000000000000000000, 160.0000000000000000 ) ) ;
#78 = FACE_OUTER_BOUND ( 'NONE', #162, .T. ) ;
#79 = DIRECTION ( 'NONE',  ( -0.000000000000000000, -0.000000000000000000, -1.000000000000000000 ) ) ;
#80 = CARTESIAN_POINT ( 'NONE',  ( 6.000000000000000888, 7.347880794884120722E-16, 160.0000000000000000 ) ) ;
#81 = ORIENTED_EDGE ( 'NONE', *, *, #2, .T. ) ;
#82 = VERTEX_POINT ( 'NONE', #131 ) ;
#83 = AXIS2_PLACEMENT_3D ( 'NONE', #157, #79, #159 ) ;
#84 = ORIENTED_EDGE ( 'NONE', *, *, #91, .F. ) ;
#85 = CIRCLE ( 'NONE', #145, 9.000000000000000000 ) ;
#86 = DIRECTION ( 'NONE',  ( 0.000000000000000000, 0.000000000000000000, 1.000000000000000000 ) ) ;
#87 = APPLICATION_PROTOCOL_DEFINITION ( 'international standard', 'config_control_design', 1994, #128 ) ;
#88 = APPROVAL_DATE_TIME ( #252, #137 ) ;
#89 = PLANE ( 'NONE',  #250 ) ;
#90 = ADVANCED_FACE ( 'NONE', ( #113 ), #194, .F. ) ;
#91 = EDGE_CURVE ( 'NONE', #136, #61, #175, .T. ) ;
#92 = DIRECTION ( 'NONE',  ( 0.000000000000000000, 0.000000000000000000, 1.000000000000000000 ) ) ;
#93 = APPROVAL_ROLE ( '' ) ;
#94 = AXIS2_PLACEMENT_3D ( 'NONE', #161, #1, #198 ) ;
#95 = DIRECTION ( 'NONE',  ( 0.000000000000000000, 0.000000000000000000, 1.000000000000000000 ) ) ;
#96 = CARTESIAN_POINT ( 'NONE',  ( 9.000000000000000000, 1.102182119232617714E-15, 0.000000000000000000 ) ) ;
#97 = CARTESIAN_POINT ( 'NONE',  ( 9.000000000000000000, 1.102182119232617714E-15, 7.000000000000000000 ) ) ;
#98 = EDGE_LOOP ( 'NONE', ( #5, #7, #121, #166 ) ) ;
#99 = EDGE_CURVE ( 'NONE', #202, #104, #105, .T. ) ;
#100 = DATE_AND_TIME ( #73, #208 ) ;
#101 = EDGE_LOOP ( 'NONE', ( #40, #24, #243, #221 ) ) ;
#102 = ADVANCED_FACE ( 'NONE', ( #124 ), #39, .T. ) ;
#103 =( LENGTH_UNIT ( ) NAMED_UNIT ( * ) SI_UNIT ( .MILLI., .METRE. ) );
#104 = VERTEX_POINT ( 'NONE', #97 ) ;
#105 = CIRCLE ( 'NONE', #75, 9.000000000000000000 ) ;
#106 = APPROVAL_PERSON_ORGANIZATION ( #111, #137, #134 ) ;
#107 = CIRCLE ( 'NONE', #245, 6.000000000000000888 ) ;
#108 = PERSON_AND_ORGANIZATION_ROLE ( 'design_owner' ) ;
#109 = DIRECTION ( 'NONE',  ( 1.000000000000000000, 0.000000000000000000, 0.000000000000000000 ) ) ;
#110 = UNCERTAINTY_MEASURE_WITH_UNIT (LENGTH_MEASURE( 1.000000000000000082E-05 ), #103, 'distance_accuracy_value', 'NONE');
#111 = PERSON_AND_ORGANIZATION ( #234, #135 ) ;
#112 = CALENDAR_DATE ( 2023, 13, 2 ) ;
#113 = FACE_OUTER_BOUND ( 'NONE', #126, .T. ) ;
#114 = PERSON_AND_ORGANIZATION ( #234, #135 ) ;
#115 = DIRECTION ( 'NONE',  ( 0.000000000000000000, 0.000000000000000000, 1.000000000000000000 ) ) ;
#116 = DIRECTION ( 'NONE',  ( 1.000000000000000000, 0.000000000000000000, 0.000000000000000000 ) ) ;
#117 = CYLINDRICAL_SURFACE ( 'NONE', #94, 6.000000000000000888 ) ;
#118 = CARTESIAN_POINT ( 'NONE',  ( 0.000000000000000000, 0.000000000000000000, 160.0000000000000000 ) ) ;
#119 = CC_DESIGN_PERSON_AND_ORGANIZATION_ASSIGNMENT ( #210, #28, ( #44 ) ) ;
#120 = ORIENTED_EDGE ( 'NONE', *, *, #11, .T. ) ;
#121 = ORIENTED_EDGE ( 'NONE', *, *, #213, .T. ) ;
#122 = AXIS2_PLACEMENT_3D ( 'NONE', #13, #115, #116 ) ;
#123 = APPROVAL_PERSON_ORGANIZATION ( #188, #49, #237 ) ;
#124 = FACE_OUTER_BOUND ( 'NONE', #101, .T. ) ;
#125 = VERTEX_POINT ( 'NONE', #96 ) ;
#126 = EDGE_LOOP ( 'NONE', ( #34, #184 ) ) ;
#127 = CLOSED_SHELL ( 'NONE', ( #3, #130, #102, #146, #90, #168, #59 ) ) ;
#128 = APPLICATION_CONTEXT ( 'configuration controlled 3d designs of mechanical parts and assemblies' ) ;
#129 = DIRECTION ( 'NONE',  ( 0.000000000000000000, 0.000000000000000000, 1.000000000000000000 ) ) ;
#130 = ADVANCED_FACE ( 'NONE', ( #223 ), #183, .T. ) ;
#131 = CARTESIAN_POINT ( 'NONE',  ( -9.000000000000000000, 0.000000000000000000, 0.000000000000000000 ) ) ;
#132 = LOCAL_TIME ( 13, 25, 36.00000000000000000, #233 ) ;
#133 = DIRECTION ( 'NONE',  ( 1.000000000000000000, 0.000000000000000000, -0.000000000000000000 ) ) ;
#134 = APPROVAL_ROLE ( '' ) ;
#135 = ORGANIZATION ( 'NEURÈENÝ', 'NEURÈENÝ', '' ) ;
#136 = VERTEX_POINT ( 'NONE', #80 ) ;
#137 = APPROVAL ( #50, 'NEURÈENÝ' ) ;
#138 = DIRECTION ( 'NONE',  ( -0.000000000000000000, -0.000000000000000000, -1.000000000000000000 ) ) ;
#139 = ORIENTED_EDGE ( 'NONE', *, *, #99, .T. ) ;
#140 = DIRECTION ( 'NONE',  ( -0.000000000000000000, -0.000000000000000000, -1.000000000000000000 ) ) ;
#141 = CC_DESIGN_DATE_AND_TIME_ASSIGNMENT ( #12, #76, ( #232 ) ) ;
#142 = EDGE_LOOP ( 'NONE', ( #139, #8 ) ) ;
#143 = CC_DESIGN_SECURITY_CLASSIFICATION ( #44, ( #193 ) ) ;
#144 = CARTESIAN_POINT ( 'NONE',  ( 0.000000000000000000, 0.000000000000000000, 7.000000000000000000 ) ) ;
#145 = AXIS2_PLACEMENT_3D ( 'NONE', #229, #86, #167 ) ;
#146 = ADVANCED_FACE ( 'NONE', ( #41, #203 ), #154, .T. ) ;
#147 = LINE ( 'NONE', #228, #181 ) ;
#148 = DIRECTION ( 'NONE',  ( -0.000000000000000000, -0.000000000000000000, -1.000000000000000000 ) ) ;
#149 = SECURITY_CLASSIFICATION_LEVEL ( 'unclassified' ) ;
#150 = LINE ( 'NONE', #176, #152 ) ;
#151 = PERSON_AND_ORGANIZATION_ROLE ( 'creator' ) ;
#152 = VECTOR ( 'NONE', #51, 1000.000000000000000 ) ;
#153 = AXIS2_PLACEMENT_3D ( 'NONE', #77, #155, #241 ) ;
#154 = PLANE ( 'NONE',  #14 ) ;
#155 = DIRECTION ( 'NONE',  ( 0.000000000000000000, 0.000000000000000000, 1.000000000000000000 ) ) ;
#156 = CIRCLE ( 'NONE', #153, 6.000000000000000888 ) ;
#157 = CARTESIAN_POINT ( 'NONE',  ( 0.000000000000000000, 0.000000000000000000, 160.0000000000000000 ) ) ;
#158 = CC_DESIGN_APPROVAL ( #49, ( #232 ) ) ;
#159 = DIRECTION ( 'NONE',  ( -1.000000000000000000, 0.000000000000000000, 0.000000000000000000 ) ) ;
#160 = MANIFOLD_SOLID_BREP ( 'Pøidat vysunutím3', #127 ) ;
#161 = CARTESIAN_POINT ( 'NONE',  ( 0.000000000000000000, 0.000000000000000000, 160.0000000000000000 ) ) ;
#162 = EDGE_LOOP ( 'NONE', ( #35, #200, #164, #182 ) ) ;
#163 = DIRECTION ( 'NONE',  ( -0.000000000000000000, -0.000000000000000000, -1.000000000000000000 ) ) ;
#164 = ORIENTED_EDGE ( 'NONE', *, *, #32, .T. ) ;
#165 = DESIGN_CONTEXT ( 'detailed design', #128, 'design' ) ;
#166 = ORIENTED_EDGE ( 'NONE', *, *, #72, .F. ) ;
#167 = DIRECTION ( 'NONE',  ( 1.000000000000000000, 0.000000000000000000, 0.000000000000000000 ) ) ;
#168 = ADVANCED_FACE ( 'NONE', ( #60 ), #117, .T. ) ;
#169 = DIRECTION ( 'NONE',  ( 1.000000000000000000, 0.000000000000000000, 0.000000000000000000 ) ) ;
#170 = APPROVAL_STATUS ( 'not_yet_approved' ) ;
#171 = COORDINATED_UNIVERSAL_TIME_OFFSET ( 1, 0, .AHEAD. ) ;
#172 = PERSON_AND_ORGANIZATION ( #234, #135 ) ;
#173 = CARTESIAN_POINT ( 'NONE',  ( 0.000000000000000000, 0.000000000000000000, 160.0000000000000000 ) ) ;
#174 = APPROVAL_DATE_TIME ( #56, #49 ) ;
#175 = LINE ( 'NONE', #54, #37 ) ;
#176 = CARTESIAN_POINT ( 'NONE',  ( -9.000000000000000000, 0.000000000000000000, 7.000000000000000000 ) ) ;
#177 = CC_DESIGN_APPROVAL ( #22, ( #44 ) ) ;
#178 = CARTESIAN_POINT ( 'NONE',  ( 0.000000000000000000, 0.000000000000000000, 7.000000000000000000 ) ) ;
#179 = DIRECTION ( 'NONE',  ( 0.000000000000000000, 0.000000000000000000, 1.000000000000000000 ) ) ;
#180 = CARTESIAN_POINT ( 'NONE',  ( 9.000000000000000000, 1.102182119232617714E-15, 7.000000000000000000 ) ) ;
#181 = VECTOR ( 'NONE', #148, 1000.000000000000000 ) ;
#182 = ORIENTED_EDGE ( 'NONE', *, *, #220, .F. ) ;
#183 = CYLINDRICAL_SURFACE ( 'NONE', #42, 9.000000000000000000 ) ;
#184 = ORIENTED_EDGE ( 'NONE', *, *, #213, .F. ) ;
#185 = EDGE_LOOP ( 'NONE', ( #23, #81 ) ) ;
#186 = ORIENTED_EDGE ( 'NONE', *, *, #32, .F. ) ;
#187 = EDGE_CURVE ( 'NONE', #66, #136, #156, .T. ) ;
#188 = PERSON_AND_ORGANIZATION ( #234, #135 ) ;
#189 = MECHANICAL_CONTEXT ( 'NONE', #216, 'mechanical' ) ;
#190 = LOCAL_TIME ( 13, 25, 36.00000000000000000, #248 ) ;
#191 = PERSON_AND_ORGANIZATION ( #234, #135 ) ;
#192 = DATE_AND_TIME ( #53, #132 ) ;
#193 = PRODUCT_DEFINITION_FORMATION_WITH_SPECIFIED_SOURCE ( 'LIBOVOLNÝ', '', #15, .NOT_KNOWN. ) ;
#194 = PLANE ( 'NONE',  #225 ) ;
#195 = APPROVAL_STATUS ( 'not_yet_approved' ) ;
#196 = CARTESIAN_POINT ( 'NONE',  ( 6.000000000000000888, 7.347880794884120722E-16, 7.000000000000000000 ) ) ;
#197 = EDGE_CURVE ( 'NONE', #104, #125, #64, .T. ) ;
#198 = DIRECTION ( 'NONE',  ( -1.000000000000000000, 0.000000000000000000, 0.000000000000000000 ) ) ;
#199 = ADVANCED_BREP_SHAPE_REPRESENTATION ( '9bf9', ( #160, #38 ), #46 ) ;
#200 = ORIENTED_EDGE ( 'NONE', *, *, #91, .T. ) ;
#201 = CARTESIAN_POINT ( 'NONE',  ( 0.000000000000000000, 0.000000000000000000, 7.000000000000000000 ) ) ;
#202 = VERTEX_POINT ( 'NONE', #19 ) ;
#203 = FACE_OUTER_BOUND ( 'NONE', #142, .T. ) ;
#204 = CC_DESIGN_PERSON_AND_ORGANIZATION_ASSIGNMENT ( #191, #108, ( #15 ) ) ;
#205 = EDGE_CURVE ( 'NONE', #104, #202, #235, .T. ) ;
#206 =( NAMED_UNIT ( * ) PLANE_ANGLE_UNIT ( ) SI_UNIT ( $, .RADIAN. ) );
#207 = CARTESIAN_POINT ( 'NONE',  ( 0.000000000000000000, 0.000000000000000000, 7.000000000000000000 ) ) ;
#208 = LOCAL_TIME ( 13, 25, 36.00000000000000000, #255 ) ;
#209 = PRODUCT_DEFINITION_SHAPE ( 'NONE', 'NONE',  #232 ) ;
#210 = PERSON_AND_ORGANIZATION ( #234, #135 ) ;
#211 = PERSON_AND_ORGANIZATION ( #234, #135 ) ;
#212 = CC_DESIGN_PERSON_AND_ORGANIZATION_ASSIGNMENT ( #211, #254, ( #232 ) ) ;
#213 = EDGE_CURVE ( 'NONE', #125, #82, #85, .T. ) ;
#214 = DIRECTION ( 'NONE',  ( 0.000000000000000000, 0.000000000000000000, 1.000000000000000000 ) ) ;
#215 = DIRECTION ( 'NONE',  ( 0.000000000000000000, 0.000000000000000000, 1.000000000000000000 ) ) ;
#216 = APPLICATION_CONTEXT ( 'configuration controlled 3d designs of mechanical parts and assemblies' ) ;
#217 = EDGE_LOOP ( 'NONE', ( #84, #36, #244, #120 ) ) ;
#218 = DIRECTION ( 'NONE',  ( 1.000000000000000000, 0.000000000000000000, 0.000000000000000000 ) ) ;
#219 = ORIENTED_EDGE ( 'NONE', *, *, #11, .F. ) ;
#220 = EDGE_CURVE ( 'NONE', #66, #222, #147, .T. ) ;
#221 = ORIENTED_EDGE ( 'NONE', *, *, #251, .T. ) ;
#222 = VERTEX_POINT ( 'NONE', #10 ) ;
#223 = FACE_OUTER_BOUND ( 'NONE', #98, .T. ) ;
#224 = DIRECTION ( 'NONE',  ( 0.000000000000000000, 0.000000000000000000, 1.000000000000000000 ) ) ;
#225 = AXIS2_PLACEMENT_3D ( 'NONE', #17, #92, #133 ) ;
#226 = CC_DESIGN_APPROVAL ( #137, ( #193 ) ) ;
#227 = APPROVAL_PERSON_ORGANIZATION ( #114, #22, #93 ) ;
#228 = CARTESIAN_POINT ( 'NONE',  ( -6.000000000000000888, 0.000000000000000000, 160.0000000000000000 ) ) ;
#229 = CARTESIAN_POINT ( 'NONE',  ( 0.000000000000000000, 0.000000000000000000, 0.000000000000000000 ) ) ;
#230 = AXIS2_PLACEMENT_3D ( 'NONE', #144, #224, #242 ) ;
#231 = DATE_TIME_ROLE ( 'classification_date' ) ;
#232 = PRODUCT_DEFINITION ( 'NEZNÁMÝ', '', #193, #165 ) ;
#233 = COORDINATED_UNIVERSAL_TIME_OFFSET ( 1, 0, .AHEAD. ) ;
#234 = PERSON ( 'NEURÈENÝ', 'NEURÈENÝ', 'NEURÈENÝ', ('NEURÈENÝ'), ('NEURÈENÝ'), ('NEURÈENÝ') ) ;
#235 = CIRCLE ( 'NONE', #27, 9.000000000000000000 ) ;
#236 = FACE_OUTER_BOUND ( 'NONE', #185, .T. ) ;
#237 = APPROVAL_ROLE ( '' ) ;
#238 = DIRECTION ( 'NONE',  ( 1.000000000000000000, 0.000000000000000000, -0.000000000000000000 ) ) ;
#239 = CIRCLE ( 'NONE', #122, 6.000000000000000888 ) ;
#240 = VECTOR ( 'NONE', #138, 1000.000000000000000 ) ;
#241 = DIRECTION ( 'NONE',  ( 1.000000000000000000, 0.000000000000000000, 0.000000000000000000 ) ) ;
#242 = DIRECTION ( 'NONE',  ( 1.000000000000000000, 0.000000000000000000, 0.000000000000000000 ) ) ;
#243 = ORIENTED_EDGE ( 'NONE', *, *, #72, .T. ) ;
#244 = ORIENTED_EDGE ( 'NONE', *, *, #220, .T. ) ;
#245 = AXIS2_PLACEMENT_3D ( 'NONE', #118, #179, #20 ) ;
#246 = LOCAL_TIME ( 13, 25, 36.00000000000000000, #171 ) ;
#247 =( NAMED_UNIT ( * ) SI_UNIT ( $, .STERADIAN. ) SOLID_ANGLE_UNIT ( ) );
#248 = COORDINATED_UNIVERSAL_TIME_OFFSET ( 1, 0, .AHEAD. ) ;
#249 = CC_DESIGN_PERSON_AND_ORGANIZATION_ASSIGNMENT ( #58, #31, ( #193 ) ) ;
#250 = AXIS2_PLACEMENT_3D ( 'NONE', #173, #215, #253 ) ;
#251 = EDGE_CURVE ( 'NONE', #82, #125, #4, .T. ) ;
#252 = DATE_AND_TIME ( #16, #246 ) ;
#253 = DIRECTION ( 'NONE',  ( 1.000000000000000000, 0.000000000000000000, -0.000000000000000000 ) ) ;
#254 = PERSON_AND_ORGANIZATION_ROLE ( 'creator' ) ;
#255 = COORDINATED_UNIVERSAL_TIME_OFFSET ( 1, 0, .AHEAD. ) ;
ENDSEC;
END-ISO-10303-21;
