ISO-10303-21;
HEADER;
FILE_DESCRIPTION (( 'STEP AP203' ),
    '1' );
FILE_NAME ('6c8b.STEP',
    '2023-02-13T09:49:43',
    ( '' ),
    ( '' ),
    'SwSTEP 2.0',
    'SolidWorks 2019',
    '' );
FILE_SCHEMA (( 'CONFIG_CONTROL_DESIGN' ));
ENDSEC;

DATA;
#1 = DIRECTION ( 'NONE',  ( 0.000000000000000000, 0.000000000000000000, 1.000000000000000000 ) ) ;
#2 = AXIS2_PLACEMENT_3D ( 'NONE', #6, #220, #18 ) ;
#3 = CIRCLE ( 'NONE', #27, 7.500000000000000000 ) ;
#4 = AXIS2_PLACEMENT_3D ( 'NONE', #48, #205, #123 ) ;
#5 = CARTESIAN_POINT ( 'NONE',  ( 0.000000000000000000, 0.000000000000000000, 0.000000000000000000 ) ) ;
#6 = CARTESIAN_POINT ( 'NONE',  ( 0.000000000000000000, 0.000000000000000000, 7.000000000000000000 ) ) ;
#7 = APPROVAL_ROLE ( '' ) ;
#8 = COORDINATED_UNIVERSAL_TIME_OFFSET ( 1, 0, .AHEAD. ) ;
#9 = CARTESIAN_POINT ( 'NONE',  ( 0.000000000000000000, 0.000000000000000000, 7.000000000000000000 ) ) ;
#10 = VERTEX_POINT ( 'NONE', #139 ) ;
#11 = EDGE_CURVE ( 'NONE', #168, #209, #170, .T. ) ;
#12 = ORIENTED_EDGE ( 'NONE', *, *, #188, .F. ) ;
#13 = ORIENTED_EDGE ( 'NONE', *, *, #11, .F. ) ;
#14 = CC_DESIGN_APPROVAL ( #68, ( #33 ) ) ;
#15 = CARTESIAN_POINT ( 'NONE',  ( -7.500000000000000000, 0.000000000000000000, 400.0000000000000000 ) ) ;
#16 = ORIENTED_EDGE ( 'NONE', *, *, #57, .T. ) ;
#17 = PERSON_AND_ORGANIZATION ( #203, #222 ) ;
#18 = DIRECTION ( 'NONE',  ( 1.000000000000000000, 0.000000000000000000, 0.000000000000000000 ) ) ;
#19 = FACE_OUTER_BOUND ( 'NONE', #133, .T. ) ;
#20 = LOCAL_TIME ( 10, 49, 43.00000000000000000, #103 ) ;
#21 = PERSON_AND_ORGANIZATION ( #203, #222 ) ;
#22 = APPROVAL_DATE_TIME ( #195, #179 ) ;
#23 = CC_DESIGN_PERSON_AND_ORGANIZATION_ASSIGNMENT ( #40, #219, ( #33 ) ) ;
#24 = DIRECTION ( 'NONE',  ( 0.000000000000000000, 0.000000000000000000, 1.000000000000000000 ) ) ;
#25 = SECURITY_CLASSIFICATION_LEVEL ( 'unclassified' ) ;
#26 = DIRECTION ( 'NONE',  ( 0.000000000000000000, 0.000000000000000000, 1.000000000000000000 ) ) ;
#27 = AXIS2_PLACEMENT_3D ( 'NONE', #235, #1, #192 ) ;
#28 = PRODUCT_DEFINITION ( 'NEZNÁMÝ', '', #237, #113 ) ;
#29 = AXIS2_PLACEMENT_3D ( 'NONE', #187, #44, #127 ) ;
#30 = EDGE_CURVE ( 'NONE', #59, #209, #194, .T. ) ;
#31 = ORIENTED_EDGE ( 'NONE', *, *, #30, .T. ) ;
#32 = CARTESIAN_POINT ( 'NONE',  ( 11.00000000000000000, 1.347111479062088405E-15, 7.000000000000000000 ) ) ;
#33 = SECURITY_CLASSIFICATION ( '', '', #25 ) ;
#34 = ADVANCED_FACE ( 'NONE', ( #190 ), #160, .T. ) ;
#35 = DIRECTION ( 'NONE',  ( 1.000000000000000000, 0.000000000000000000, 0.000000000000000000 ) ) ;
#36 = AXIS2_PLACEMENT_3D ( 'NONE', #61, #24, #120 ) ;
#37 =( GEOMETRIC_REPRESENTATION_CONTEXT ( 3 ) GLOBAL_UNCERTAINTY_ASSIGNED_CONTEXT ( ( #156 ) ) GLOBAL_UNIT_ASSIGNED_CONTEXT ( ( #117, #211, #45 ) ) REPRESENTATION_CONTEXT ( 'NONE', 'WORKASPACE' ) );
#38 = APPROVAL_STATUS ( 'not_yet_approved' ) ;
#39 = ORIENTED_EDGE ( 'NONE', *, *, #57, .F. ) ;
#40 = PERSON_AND_ORGANIZATION ( #203, #222 ) ;
#41 = LINE ( 'NONE', #109, #175 ) ;
#42 = ADVANCED_BREP_SHAPE_REPRESENTATION ( '6c8b', ( #140, #95 ), #37 ) ;
#43 = DATE_AND_TIME ( #87, #89 ) ;
#44 = DIRECTION ( 'NONE',  ( 0.000000000000000000, 0.000000000000000000, 1.000000000000000000 ) ) ;
#45 =( NAMED_UNIT ( * ) SI_UNIT ( $, .STERADIAN. ) SOLID_ANGLE_UNIT ( ) );
#46 = FACE_OUTER_BOUND ( 'NONE', #208, .T. ) ;
#47 = PERSON_AND_ORGANIZATION ( #203, #222 ) ;
#48 = CARTESIAN_POINT ( 'NONE',  ( 0.000000000000000000, 0.000000000000000000, 7.000000000000000000 ) ) ;
#49 = AXIS2_PLACEMENT_3D ( 'NONE', #255, #171, #100 ) ;
#50 = EDGE_CURVE ( 'NONE', #209, #168, #112, .T. ) ;
#51 = PRODUCT ( '6c8b', '6c8b', '', ( #180 ) ) ;
#52 = ORIENTED_EDGE ( 'NONE', *, *, #150, .T. ) ;
#53 = EDGE_CURVE ( 'NONE', #70, #10, #232, .T. ) ;
#54 = CARTESIAN_POINT ( 'NONE',  ( 0.000000000000000000, 0.000000000000000000, 400.0000000000000000 ) ) ;
#55 = ORIENTED_EDGE ( 'NONE', *, *, #121, .F. ) ;
#56 = PLANE ( 'NONE',  #49 ) ;
#57 = EDGE_CURVE ( 'NONE', #137, #59, #110, .T. ) ;
#58 = CALENDAR_DATE ( 2023, 13, 2 ) ;
#59 = VERTEX_POINT ( 'NONE', #67 ) ;
#60 = LOCAL_TIME ( 10, 49, 43.00000000000000000, #84 ) ;
#61 = CARTESIAN_POINT ( 'NONE',  ( 0.000000000000000000, 0.000000000000000000, 7.000000000000000000 ) ) ;
#62 = DATE_AND_TIME ( #58, #136 ) ;
#63 = DIRECTION ( 'NONE',  ( -1.000000000000000000, 0.000000000000000000, 0.000000000000000000 ) ) ;
#64 = DIRECTION ( 'NONE',  ( 1.000000000000000000, 0.000000000000000000, -0.000000000000000000 ) ) ;
#65 = AXIS2_PLACEMENT_3D ( 'NONE', #184, #106, #165 ) ;
#66 = DIRECTION ( 'NONE',  ( 0.000000000000000000, 0.000000000000000000, 1.000000000000000000 ) ) ;
#67 = CARTESIAN_POINT ( 'NONE',  ( 11.00000000000000000, 1.347111479062088405E-15, 7.000000000000000000 ) ) ;
#68 = APPROVAL ( #183, 'NEURÈENÝ' ) ;
#69 = ORIENTED_EDGE ( 'NONE', *, *, #53, .F. ) ;
#70 = VERTEX_POINT ( 'NONE', #102 ) ;
#71 = CC_DESIGN_PERSON_AND_ORGANIZATION_ASSIGNMENT ( #204, #105, ( #237 ) ) ;
#72 = APPLICATION_CONTEXT ( 'configuration controlled 3d designs of mechanical parts and assemblies' ) ;
#73 = CIRCLE ( 'NONE', #36, 11.00000000000000000 ) ;
#74 = ORIENTED_EDGE ( 'NONE', *, *, #75, .F. ) ;
#75 = EDGE_CURVE ( 'NONE', #138, #10, #86, .T. ) ;
#76 = FACE_OUTER_BOUND ( 'NONE', #247, .T. ) ;
#77 = ORIENTED_EDGE ( 'NONE', *, *, #150, .F. ) ;
#78 = CARTESIAN_POINT ( 'NONE',  ( 0.000000000000000000, 0.000000000000000000, 0.000000000000000000 ) ) ;
#79 = DIRECTION ( 'NONE',  ( -0.000000000000000000, -0.000000000000000000, -1.000000000000000000 ) ) ;
#80 = PERSON_AND_ORGANIZATION ( #203, #222 ) ;
#81 = CARTESIAN_POINT ( 'NONE',  ( 0.000000000000000000, 0.000000000000000000, 400.0000000000000000 ) ) ;
#82 = CLOSED_SHELL ( 'NONE', ( #200, #34, #97, #233, #85, #254, #130 ) ) ;
#83 = PLANE ( 'NONE',  #214 ) ;
#84 = COORDINATED_UNIVERSAL_TIME_OFFSET ( 1, 0, .AHEAD. ) ;
#85 = ADVANCED_FACE ( 'NONE', ( #153 ), #218, .F. ) ;
#86 = LINE ( 'NONE', #163, #149 ) ;
#87 = CALENDAR_DATE ( 2023, 13, 2 ) ;
#88 = DIRECTION ( 'NONE',  ( -0.000000000000000000, -0.000000000000000000, -1.000000000000000000 ) ) ;
#89 = LOCAL_TIME ( 10, 49, 43.00000000000000000, #8 ) ;
#90 = APPROVAL_ROLE ( '' ) ;
#91 = CARTESIAN_POINT ( 'NONE',  ( -11.00000000000000000, 0.000000000000000000, 7.000000000000000000 ) ) ;
#92 = ORIENTED_EDGE ( 'NONE', *, *, #53, .T. ) ;
#93 = CIRCLE ( 'NONE', #111, 7.500000000000000000 ) ;
#94 = ORIENTED_EDGE ( 'NONE', *, *, #227, .F. ) ;
#95 = AXIS2_PLACEMENT_3D ( 'NONE', #5, #197, #201 ) ;
#96 = EDGE_LOOP ( 'NONE', ( #249, #31, #99, #77 ) ) ;
#97 = ADVANCED_FACE ( 'NONE', ( #46 ), #167, .T. ) ;
#98 = FACE_OUTER_BOUND ( 'NONE', #172, .T. ) ;
#99 = ORIENTED_EDGE ( 'NONE', *, *, #50, .T. ) ;
#100 = DIRECTION ( 'NONE',  ( 1.000000000000000000, 0.000000000000000000, -0.000000000000000000 ) ) ;
#101 = CALENDAR_DATE ( 2023, 13, 2 ) ;
#102 = CARTESIAN_POINT ( 'NONE',  ( -7.500000000000000000, 0.000000000000000000, 7.000000000000000000 ) ) ;
#103 = COORDINATED_UNIVERSAL_TIME_OFFSET ( 1, 0, .AHEAD. ) ;
#104 = CYLINDRICAL_SURFACE ( 'NONE', #229, 7.500000000000000000 ) ;
#105 = PERSON_AND_ORGANIZATION_ROLE ( 'design_supplier' ) ;
#106 = DIRECTION ( 'NONE',  ( -0.000000000000000000, -0.000000000000000000, -1.000000000000000000 ) ) ;
#107 = CALENDAR_DATE ( 2023, 13, 2 ) ;
#108 = CARTESIAN_POINT ( 'NONE',  ( 0.000000000000000000, 0.000000000000000000, 400.0000000000000000 ) ) ;
#109 = CARTESIAN_POINT ( 'NONE',  ( -7.500000000000000000, 0.000000000000000000, 400.0000000000000000 ) ) ;
#110 = CIRCLE ( 'NONE', #2, 11.00000000000000000 ) ;
#111 = AXIS2_PLACEMENT_3D ( 'NONE', #9, #66, #174 ) ;
#112 = CIRCLE ( 'NONE', #191, 11.00000000000000000 ) ;
#113 = DESIGN_CONTEXT ( 'detailed design', #72, 'design' ) ;
#114 = APPLICATION_CONTEXT ( 'configuration controlled 3d designs of mechanical parts and assemblies' ) ;
#115 = FACE_BOUND ( 'NONE', #129, .T. ) ;
#116 = ORIENTED_EDGE ( 'NONE', *, *, #188, .T. ) ;
#117 =( LENGTH_UNIT ( ) NAMED_UNIT ( * ) SI_UNIT ( .MILLI., .METRE. ) );
#118 = DATE_AND_TIME ( #141, #60 ) ;
#119 = APPLICATION_PROTOCOL_DEFINITION ( 'international standard', 'config_control_design', 1994, #114 ) ;
#120 = DIRECTION ( 'NONE',  ( 1.000000000000000000, 0.000000000000000000, 0.000000000000000000 ) ) ;
#121 = EDGE_CURVE ( 'NONE', #252, #70, #41, .T. ) ;
#122 = DATE_AND_TIME ( #101, #20 ) ;
#123 = DIRECTION ( 'NONE',  ( 1.000000000000000000, 0.000000000000000000, 0.000000000000000000 ) ) ;
#124 = AXIS2_PLACEMENT_3D ( 'NONE', #81, #238, #244 ) ;
#125 = CARTESIAN_POINT ( 'NONE',  ( 7.500000000000000000, 9.184850993605147944E-16, 400.0000000000000000 ) ) ;
#126 = PERSON_AND_ORGANIZATION_ROLE ( 'creator' ) ;
#127 = DIRECTION ( 'NONE',  ( 1.000000000000000000, 0.000000000000000000, -0.000000000000000000 ) ) ;
#128 = CARTESIAN_POINT ( 'NONE',  ( -11.00000000000000000, 0.000000000000000000, 0.000000000000000000 ) ) ;
#129 = EDGE_LOOP ( 'NONE', ( #69, #94 ) ) ;
#130 = ADVANCED_FACE ( 'NONE', ( #241 ), #83, .T. ) ;
#131 = ORIENTED_EDGE ( 'NONE', *, *, #11, .T. ) ;
#132 = APPROVAL_PERSON_ORGANIZATION ( #21, #68, #7 ) ;
#133 = EDGE_LOOP ( 'NONE', ( #12, #216, #212, #55 ) ) ;
#134 = DIRECTION ( 'NONE',  ( -1.000000000000000000, 0.000000000000000000, 0.000000000000000000 ) ) ;
#135 = AXIS2_PLACEMENT_3D ( 'NONE', #54, #159, #134 ) ;
#136 = LOCAL_TIME ( 10, 49, 43.00000000000000000, #151 ) ;
#137 = VERTEX_POINT ( 'NONE', #228 ) ;
#138 = VERTEX_POINT ( 'NONE', #125 ) ;
#139 = CARTESIAN_POINT ( 'NONE',  ( 7.500000000000000000, 9.184850993605147944E-16, 7.000000000000000000 ) ) ;
#140 = MANIFOLD_SOLID_BREP ( 'Pøidat vysunutím3', #82 ) ;
#141 = CALENDAR_DATE ( 2023, 13, 2 ) ;
#142 = CC_DESIGN_APPROVAL ( #173, ( #237 ) ) ;
#143 = EDGE_CURVE ( 'NONE', #59, #137, #73, .T. ) ;
#144 = DIRECTION ( 'NONE',  ( -0.000000000000000000, -0.000000000000000000, -1.000000000000000000 ) ) ;
#145 = PERSON_AND_ORGANIZATION_ROLE ( 'creator' ) ;
#146 = DIRECTION ( 'NONE',  ( -1.000000000000000000, 0.000000000000000000, 0.000000000000000000 ) ) ;
#147 = PERSON_AND_ORGANIZATION_ROLE ( 'design_owner' ) ;
#148 = CARTESIAN_POINT ( 'NONE',  ( 0.000000000000000000, 0.000000000000000000, 7.000000000000000000 ) ) ;
#149 = VECTOR ( 'NONE', #88, 1000.000000000000000 ) ;
#150 = EDGE_CURVE ( 'NONE', #137, #168, #198, .T. ) ;
#151 = COORDINATED_UNIVERSAL_TIME_OFFSET ( 1, 0, .AHEAD. ) ;
#152 = CARTESIAN_POINT ( 'NONE',  ( 0.000000000000000000, 0.000000000000000000, 0.000000000000000000 ) ) ;
#153 = FACE_OUTER_BOUND ( 'NONE', #169, .T. ) ;
#154 = ORIENTED_EDGE ( 'NONE', *, *, #30, .F. ) ;
#155 = PRODUCT_RELATED_PRODUCT_CATEGORY ( 'detail', '', ( #51 ) ) ;
#156 = UNCERTAINTY_MEASURE_WITH_UNIT (LENGTH_MEASURE( 1.000000000000000082E-05 ), #117, 'distance_accuracy_value', 'NONE');
#157 = ORIENTED_EDGE ( 'NONE', *, *, #251, .T. ) ;
#158 = CC_DESIGN_PERSON_AND_ORGANIZATION_ASSIGNMENT ( #185, #126, ( #28 ) ) ;
#159 = DIRECTION ( 'NONE',  ( -0.000000000000000000, -0.000000000000000000, -1.000000000000000000 ) ) ;
#160 = CYLINDRICAL_SURFACE ( 'NONE', #223, 11.00000000000000000 ) ;
#161 = CC_DESIGN_APPROVAL ( #179, ( #28 ) ) ;
#162 = COORDINATED_UNIVERSAL_TIME_OFFSET ( 1, 0, .AHEAD. ) ;
#163 = CARTESIAN_POINT ( 'NONE',  ( 7.500000000000000000, 9.184850993605147944E-16, 400.0000000000000000 ) ) ;
#164 = SHAPE_DEFINITION_REPRESENTATION ( #206, #42 ) ;
#165 = DIRECTION ( 'NONE',  ( -1.000000000000000000, 0.000000000000000000, 0.000000000000000000 ) ) ;
#166 = DATE_TIME_ROLE ( 'creation_date' ) ;
#167 = CYLINDRICAL_SURFACE ( 'NONE', #65, 11.00000000000000000 ) ;
#168 = VERTEX_POINT ( 'NONE', #128 ) ;
#169 = EDGE_LOOP ( 'NONE', ( #13, #213 ) ) ;
#170 = CIRCLE ( 'NONE', #243, 11.00000000000000000 ) ;
#171 = DIRECTION ( 'NONE',  ( 0.000000000000000000, 0.000000000000000000, 1.000000000000000000 ) ) ;
#172 = EDGE_LOOP ( 'NONE', ( #16, #231 ) ) ;
#173 = APPROVAL ( #242, 'NEURÈENÝ' ) ;
#174 = DIRECTION ( 'NONE',  ( 1.000000000000000000, 0.000000000000000000, 0.000000000000000000 ) ) ;
#175 = VECTOR ( 'NONE', #181, 1000.000000000000000 ) ;
#176 = CYLINDRICAL_SURFACE ( 'NONE', #135, 7.500000000000000000 ) ;
#177 = CIRCLE ( 'NONE', #124, 7.500000000000000000 ) ;
#178 = ORIENTED_EDGE ( 'NONE', *, *, #251, .F. ) ;
#179 = APPROVAL ( #38, 'NEURÈENÝ' ) ;
#180 = MECHANICAL_CONTEXT ( 'NONE', #114, 'mechanical' ) ;
#181 = DIRECTION ( 'NONE',  ( -0.000000000000000000, -0.000000000000000000, -1.000000000000000000 ) ) ;
#182 = LOCAL_TIME ( 10, 49, 43.00000000000000000, #162 ) ;
#183 = APPROVAL_STATUS ( 'not_yet_approved' ) ;
#184 = CARTESIAN_POINT ( 'NONE',  ( 0.000000000000000000, 0.000000000000000000, 7.000000000000000000 ) ) ;
#185 = PERSON_AND_ORGANIZATION ( #203, #222 ) ;
#186 = CARTESIAN_POINT ( 'NONE',  ( 11.00000000000000000, 1.347111479062088405E-15, 0.000000000000000000 ) ) ;
#187 = CARTESIAN_POINT ( 'NONE',  ( 0.000000000000000000, 0.000000000000000000, 0.000000000000000000 ) ) ;
#188 = EDGE_CURVE ( 'NONE', #138, #252, #177, .T. ) ;
#189 = VECTOR ( 'NONE', #79, 1000.000000000000000 ) ;
#190 = FACE_OUTER_BOUND ( 'NONE', #96, .T. ) ;
#191 = AXIS2_PLACEMENT_3D ( 'NONE', #152, #226, #224 ) ;
#192 = DIRECTION ( 'NONE',  ( 1.000000000000000000, 0.000000000000000000, 0.000000000000000000 ) ) ;
#193 = CC_DESIGN_DATE_AND_TIME_ASSIGNMENT ( #43, #166, ( #28 ) ) ;
#194 = LINE ( 'NONE', #32, #189 ) ;
#195 = DATE_AND_TIME ( #107, #182 ) ;
#196 = DIRECTION ( 'NONE',  ( 0.000000000000000000, 0.000000000000000000, 1.000000000000000000 ) ) ;
#197 = DIRECTION ( 'NONE',  ( 0.000000000000000000, 0.000000000000000000, 1.000000000000000000 ) ) ;
#198 = LINE ( 'NONE', #91, #210 ) ;
#199 = DATE_TIME_ROLE ( 'classification_date' ) ;
#200 = ADVANCED_FACE ( 'NONE', ( #19 ), #104, .T. ) ;
#201 = DIRECTION ( 'NONE',  ( 1.000000000000000000, 0.000000000000000000, 0.000000000000000000 ) ) ;
#202 = CARTESIAN_POINT ( 'NONE',  ( 0.000000000000000000, 0.000000000000000000, 400.0000000000000000 ) ) ;
#203 = PERSON ( 'NEURÈENÝ', 'NEURÈENÝ', 'NEURÈENÝ', ('NEURÈENÝ'), ('NEURÈENÝ'), ('NEURÈENÝ') ) ;
#204 = PERSON_AND_ORGANIZATION ( #203, #222 ) ;
#205 = DIRECTION ( 'NONE',  ( 0.000000000000000000, 0.000000000000000000, 1.000000000000000000 ) ) ;
#206 = PRODUCT_DEFINITION_SHAPE ( 'NONE', 'NONE',  #28 ) ;
#207 = EDGE_LOOP ( 'NONE', ( #157, #116 ) ) ;
#208 = EDGE_LOOP ( 'NONE', ( #154, #39, #52, #131 ) ) ;
#209 = VERTEX_POINT ( 'NONE', #186 ) ;
#210 = VECTOR ( 'NONE', #246, 1000.000000000000000 ) ;
#211 =( NAMED_UNIT ( * ) PLANE_ANGLE_UNIT ( ) SI_UNIT ( $, .RADIAN. ) );
#212 = ORIENTED_EDGE ( 'NONE', *, *, #227, .T. ) ;
#213 = ORIENTED_EDGE ( 'NONE', *, *, #50, .F. ) ;
#214 = AXIS2_PLACEMENT_3D ( 'NONE', #202, #26, #64 ) ;
#215 = CC_DESIGN_SECURITY_CLASSIFICATION ( #33, ( #237 ) ) ;
#216 = ORIENTED_EDGE ( 'NONE', *, *, #75, .T. ) ;
#217 = PERSON_AND_ORGANIZATION ( #203, #222 ) ;
#218 = PLANE ( 'NONE',  #29 ) ;
#219 = PERSON_AND_ORGANIZATION_ROLE ( 'classification_officer' ) ;
#220 = DIRECTION ( 'NONE',  ( 0.000000000000000000, 0.000000000000000000, 1.000000000000000000 ) ) ;
#221 = APPLICATION_PROTOCOL_DEFINITION ( 'international standard', 'config_control_design', 1994, #72 ) ;
#222 = ORGANIZATION ( 'NEURÈENÝ', 'NEURÈENÝ', '' ) ;
#223 = AXIS2_PLACEMENT_3D ( 'NONE', #148, #144, #146 ) ;
#224 = DIRECTION ( 'NONE',  ( 1.000000000000000000, 0.000000000000000000, 0.000000000000000000 ) ) ;
#225 = APPROVAL_DATE_TIME ( #62, #173 ) ;
#226 = DIRECTION ( 'NONE',  ( 0.000000000000000000, 0.000000000000000000, 1.000000000000000000 ) ) ;
#227 = EDGE_CURVE ( 'NONE', #10, #70, #93, .T. ) ;
#228 = CARTESIAN_POINT ( 'NONE',  ( -11.00000000000000000, 0.000000000000000000, 7.000000000000000000 ) ) ;
#229 = AXIS2_PLACEMENT_3D ( 'NONE', #108, #239, #63 ) ;
#230 = CC_DESIGN_PERSON_AND_ORGANIZATION_ASSIGNMENT ( #80, #147, ( #51 ) ) ;
#231 = ORIENTED_EDGE ( 'NONE', *, *, #143, .T. ) ;
#232 = CIRCLE ( 'NONE', #4, 7.500000000000000000 ) ;
#233 = ADVANCED_FACE ( 'NONE', ( #115, #98 ), #56, .T. ) ;
#234 = CC_DESIGN_DATE_AND_TIME_ASSIGNMENT ( #122, #199, ( #33 ) ) ;
#235 = CARTESIAN_POINT ( 'NONE',  ( 0.000000000000000000, 0.000000000000000000, 400.0000000000000000 ) ) ;
#236 = APPROVAL_DATE_TIME ( #118, #68 ) ;
#237 = PRODUCT_DEFINITION_FORMATION_WITH_SPECIFIED_SOURCE ( 'LIBOVOLNÝ', '', #51, .NOT_KNOWN. ) ;
#238 = DIRECTION ( 'NONE',  ( 0.000000000000000000, 0.000000000000000000, 1.000000000000000000 ) ) ;
#239 = DIRECTION ( 'NONE',  ( -0.000000000000000000, -0.000000000000000000, -1.000000000000000000 ) ) ;
#240 = APPROVAL_ROLE ( '' ) ;
#241 = FACE_OUTER_BOUND ( 'NONE', #207, .T. ) ;
#242 = APPROVAL_STATUS ( 'not_yet_approved' ) ;
#243 = AXIS2_PLACEMENT_3D ( 'NONE', #78, #196, #35 ) ;
#244 = DIRECTION ( 'NONE',  ( 1.000000000000000000, 0.000000000000000000, 0.000000000000000000 ) ) ;
#245 = CC_DESIGN_PERSON_AND_ORGANIZATION_ASSIGNMENT ( #47, #145, ( #237 ) ) ;
#246 = DIRECTION ( 'NONE',  ( -0.000000000000000000, -0.000000000000000000, -1.000000000000000000 ) ) ;
#247 = EDGE_LOOP ( 'NONE', ( #74, #178, #253, #92 ) ) ;
#248 = APPROVAL_PERSON_ORGANIZATION ( #217, #179, #240 ) ;
#249 = ORIENTED_EDGE ( 'NONE', *, *, #143, .F. ) ;
#250 = APPROVAL_PERSON_ORGANIZATION ( #17, #173, #90 ) ;
#251 = EDGE_CURVE ( 'NONE', #252, #138, #3, .T. ) ;
#252 = VERTEX_POINT ( 'NONE', #15 ) ;
#253 = ORIENTED_EDGE ( 'NONE', *, *, #121, .T. ) ;
#254 = ADVANCED_FACE ( 'NONE', ( #76 ), #176, .T. ) ;
#255 = CARTESIAN_POINT ( 'NONE',  ( 0.000000000000000000, 0.000000000000000000, 7.000000000000000000 ) ) ;
ENDSEC;
END-ISO-10303-21;
