ISO-10303-21;
HEADER;
FILE_DESCRIPTION (( 'STEP AP203' ),
    '1' );
FILE_NAME ('8a5d.STEP',
    '2023-02-13T15:22:43',
    ( '' ),
    ( '' ),
    'SwSTEP 2.0',
    'SolidWorks 2019',
    '' );
FILE_SCHEMA (( 'CONFIG_CONTROL_DESIGN' ));
ENDSEC;

DATA;
#1 = CALENDAR_DATE ( 2023, 13, 2 ) ;
#2 = EDGE_CURVE ( 'NONE', #126, #140, #43, .T. ) ;
#3 = AXIS2_PLACEMENT_3D ( 'NONE', #60, #209, #44 ) ;
#4 = APPROVAL_PERSON_ORGANIZATION ( #138, #26, #46 ) ;
#5 = PERSON_AND_ORGANIZATION_ROLE ( 'classification_officer' ) ;
#6 = DESIGN_CONTEXT ( 'detailed design', #91, 'design' ) ;
#7 = DIRECTION ( 'NONE',  ( 0.000000000000000000, 0.000000000000000000, 1.000000000000000000 ) ) ;
#8 = ORGANIZATION ( 'NEURÈENÝ', 'NEURÈENÝ', '' ) ;
#9 = PRODUCT ( '8a5d', '8a5d', '', ( #171 ) ) ;
#10 = CIRCLE ( 'NONE', #132, 3.000000000000000444 ) ;
#11 = PRODUCT_DEFINITION_FORMATION_WITH_SPECIFIED_SOURCE ( 'LIBOVOLNÝ', '', #9, .NOT_KNOWN. ) ;
#12 = ORIENTED_EDGE ( 'NONE', *, *, #135, .T. ) ;
#13 = ORIENTED_EDGE ( 'NONE', *, *, #211, .T. ) ;
#14 = APPROVAL_STATUS ( 'not_yet_approved' ) ;
#15 = ORIENTED_EDGE ( 'NONE', *, *, #124, .T. ) ;
#16 = AXIS2_PLACEMENT_3D ( 'NONE', #255, #65, #254 ) ;
#17 = DIRECTION ( 'NONE',  ( -0.000000000000000000, -0.000000000000000000, -1.000000000000000000 ) ) ;
#18 = APPROVAL_ROLE ( '' ) ;
#19 = FACE_OUTER_BOUND ( 'NONE', #168, .T. ) ;
#20 = CARTESIAN_POINT ( 'NONE',  ( -6.000000000000000888, 0.000000000000000000, 5.000000000000000000 ) ) ;
#21 = DIRECTION ( 'NONE',  ( 1.000000000000000000, 0.000000000000000000, 0.000000000000000000 ) ) ;
#22 = CARTESIAN_POINT ( 'NONE',  ( 0.000000000000000000, 0.000000000000000000, 5.000000000000000000 ) ) ;
#23 = MANIFOLD_SOLID_BREP ( 'Pøidat vysunutím3', #202 ) ;
#24 = ORIENTED_EDGE ( 'NONE', *, *, #102, .T. ) ;
#25 = CIRCLE ( 'NONE', #164, 3.000000000000000444 ) ;
#26 = APPROVAL ( #157, 'NEURÈENÝ' ) ;
#27 = ORIENTED_EDGE ( 'NONE', *, *, #29, .T. ) ;
#28 = CIRCLE ( 'NONE', #32, 6.000000000000000888 ) ;
#29 = EDGE_CURVE ( 'NONE', #73, #39, #10, .T. ) ;
#30 = DIRECTION ( 'NONE',  ( 0.000000000000000000, 0.000000000000000000, 1.000000000000000000 ) ) ;
#31 = VERTEX_POINT ( 'NONE', #20 ) ;
#32 = AXIS2_PLACEMENT_3D ( 'NONE', #104, #142, #82 ) ;
#33 = ORIENTED_EDGE ( 'NONE', *, *, #201, .F. ) ;
#34 = EDGE_CURVE ( 'NONE', #140, #126, #25, .T. ) ;
#35 = FACE_BOUND ( 'NONE', #163, .T. ) ;
#36 = DIRECTION ( 'NONE',  ( 0.000000000000000000, 0.000000000000000000, 1.000000000000000000 ) ) ;
#37 = EDGE_CURVE ( 'NONE', #126, #39, #61, .T. ) ;
#38 = PERSON_AND_ORGANIZATION ( #116, #8 ) ;
#39 = VERTEX_POINT ( 'NONE', #152 ) ;
#40 = DATE_AND_TIME ( #230, #118 ) ;
#41 = EDGE_LOOP ( 'NONE', ( #192, #172, #161, #224 ) ) ;
#42 = DIRECTION ( 'NONE',  ( -0.000000000000000000, -0.000000000000000000, -1.000000000000000000 ) ) ;
#43 = CIRCLE ( 'NONE', #247, 3.000000000000000444 ) ;
#44 = DIRECTION ( 'NONE',  ( 1.000000000000000000, 0.000000000000000000, -0.000000000000000000 ) ) ;
#45 = PLANE ( 'NONE',  #50 ) ;
#46 = APPROVAL_ROLE ( '' ) ;
#47 = CARTESIAN_POINT ( 'NONE',  ( -3.000000000000000444, 0.000000000000000000, 125.0000000000000000 ) ) ;
#48 = APPROVAL_DATE_TIME ( #158, #26 ) ;
#49 = DIRECTION ( 'NONE',  ( -1.000000000000000000, 0.000000000000000000, 0.000000000000000000 ) ) ;
#50 = AXIS2_PLACEMENT_3D ( 'NONE', #81, #55, #100 ) ;
#51 = LOCAL_TIME ( 16, 22, 43.00000000000000000, #88 ) ;
#52 = CC_DESIGN_DATE_AND_TIME_ASSIGNMENT ( #40, #173, ( #246 ) ) ;
#53 = ADVANCED_FACE ( 'NONE', ( #233 ), #195, .T. ) ;
#54 = ORIENTED_EDGE ( 'NONE', *, *, #197, .T. ) ;
#55 = DIRECTION ( 'NONE',  ( 0.000000000000000000, 0.000000000000000000, 1.000000000000000000 ) ) ;
#56 = EDGE_CURVE ( 'NONE', #140, #73, #216, .T. ) ;
#57 = PERSON_AND_ORGANIZATION_ROLE ( 'design_supplier' ) ;
#58 = CARTESIAN_POINT ( 'NONE',  ( 0.000000000000000000, 0.000000000000000000, 5.000000000000000000 ) ) ;
#59 = APPROVAL_ROLE ( '' ) ;
#60 = CARTESIAN_POINT ( 'NONE',  ( 0.000000000000000000, 0.000000000000000000, 0.000000000000000000 ) ) ;
#61 = LINE ( 'NONE', #64, #148 ) ;
#62 = PERSON_AND_ORGANIZATION ( #116, #8 ) ;
#63 = PLANE ( 'NONE',  #3 ) ;
#64 = CARTESIAN_POINT ( 'NONE',  ( 3.000000000000000444, 3.673940397442060361E-16, 125.0000000000000000 ) ) ;
#65 = DIRECTION ( 'NONE',  ( -0.000000000000000000, -0.000000000000000000, -1.000000000000000000 ) ) ;
#66 = CYLINDRICAL_SURFACE ( 'NONE', #191, 3.000000000000000444 ) ;
#67 = PLANE ( 'NONE',  #154 ) ;
#68 = EDGE_CURVE ( 'NONE', #207, #189, #93, .T. ) ;
#69 = CC_DESIGN_DATE_AND_TIME_ASSIGNMENT ( #99, #80, ( #184 ) ) ;
#70 = CARTESIAN_POINT ( 'NONE',  ( 0.000000000000000000, 0.000000000000000000, 125.0000000000000000 ) ) ;
#71 = PERSON_AND_ORGANIZATION_ROLE ( 'creator' ) ;
#72 = DIRECTION ( 'NONE',  ( 1.000000000000000000, 0.000000000000000000, 0.000000000000000000 ) ) ;
#73 = VERTEX_POINT ( 'NONE', #175 ) ;
#74 = LOCAL_TIME ( 16, 22, 43.00000000000000000, #196 ) ;
#75 =( NAMED_UNIT ( * ) SI_UNIT ( $, .STERADIAN. ) SOLID_ANGLE_UNIT ( ) );
#76 = FACE_OUTER_BOUND ( 'NONE', #41, .T. ) ;
#77 = FACE_OUTER_BOUND ( 'NONE', #200, .T. ) ;
#78 = APPLICATION_CONTEXT ( 'configuration controlled 3d designs of mechanical parts and assemblies' ) ;
#79 = CARTESIAN_POINT ( 'NONE',  ( 0.000000000000000000, 0.000000000000000000, 5.000000000000000000 ) ) ;
#80 = DATE_TIME_ROLE ( 'classification_date' ) ;
#81 = CARTESIAN_POINT ( 'NONE',  ( 0.000000000000000000, 0.000000000000000000, 125.0000000000000000 ) ) ;
#82 = DIRECTION ( 'NONE',  ( 1.000000000000000000, 0.000000000000000000, 0.000000000000000000 ) ) ;
#83 = APPROVAL_PERSON_ORGANIZATION ( #151, #178, #18 ) ;
#84 =( NAMED_UNIT ( * ) PLANE_ANGLE_UNIT ( ) SI_UNIT ( $, .RADIAN. ) );
#85 = ORIENTED_EDGE ( 'NONE', *, *, #29, .F. ) ;
#86 = CC_DESIGN_PERSON_AND_ORGANIZATION_ASSIGNMENT ( #228, #57, ( #11 ) ) ;
#87 = DIRECTION ( 'NONE',  ( 1.000000000000000000, 0.000000000000000000, 0.000000000000000000 ) ) ;
#88 = COORDINATED_UNIVERSAL_TIME_OFFSET ( 1, 0, .AHEAD. ) ;
#89 = EDGE_LOOP ( 'NONE', ( #103, #220, #24, #54 ) ) ;
#90 = APPLICATION_PROTOCOL_DEFINITION ( 'international standard', 'config_control_design', 1994, #78 ) ;
#91 = APPLICATION_CONTEXT ( 'configuration controlled 3d designs of mechanical parts and assemblies' ) ;
#92 = ORIENTED_EDGE ( 'NONE', *, *, #56, .T. ) ;
#93 = CIRCLE ( 'NONE', #236, 6.000000000000000888 ) ;
#94 = COORDINATED_UNIVERSAL_TIME_OFFSET ( 1, 0, .AHEAD. ) ;
#95 = DIRECTION ( 'NONE',  ( -0.000000000000000000, -0.000000000000000000, -1.000000000000000000 ) ) ;
#96 = DIRECTION ( 'NONE',  ( 0.000000000000000000, 0.000000000000000000, 1.000000000000000000 ) ) ;
#97 = AXIS2_PLACEMENT_3D ( 'NONE', #117, #42, #215 ) ;
#98 = CARTESIAN_POINT ( 'NONE',  ( 3.000000000000000444, 3.673940397442060361E-16, 125.0000000000000000 ) ) ;
#99 = DATE_AND_TIME ( #1, #155 ) ;
#100 = DIRECTION ( 'NONE',  ( 1.000000000000000000, 0.000000000000000000, -0.000000000000000000 ) ) ;
#101 = CARTESIAN_POINT ( 'NONE',  ( 6.000000000000000888, 7.347880794884120722E-16, 0.000000000000000000 ) ) ;
#102 = EDGE_CURVE ( 'NONE', #31, #189, #131, .T. ) ;
#103 = ORIENTED_EDGE ( 'NONE', *, *, #135, .F. ) ;
#104 = CARTESIAN_POINT ( 'NONE',  ( 0.000000000000000000, 0.000000000000000000, 5.000000000000000000 ) ) ;
#105 = CARTESIAN_POINT ( 'NONE',  ( 0.000000000000000000, 0.000000000000000000, 5.000000000000000000 ) ) ;
#106 = PERSON_AND_ORGANIZATION ( #116, #8 ) ;
#107 = VECTOR ( 'NONE', #231, 1000.000000000000000 ) ;
#108 = PERSON_AND_ORGANIZATION ( #116, #8 ) ;
#109 = ORIENTED_EDGE ( 'NONE', *, *, #197, .F. ) ;
#110 = DIRECTION ( 'NONE',  ( 0.000000000000000000, 0.000000000000000000, 1.000000000000000000 ) ) ;
#111 = CYLINDRICAL_SURFACE ( 'NONE', #252, 3.000000000000000444 ) ;
#112 = ADVANCED_FACE ( 'NONE', ( #77 ), #114, .T. ) ;
#113 = CALENDAR_DATE ( 2023, 13, 2 ) ;
#114 = CYLINDRICAL_SURFACE ( 'NONE', #16, 6.000000000000000888 ) ;
#115 = CARTESIAN_POINT ( 'NONE',  ( -6.000000000000000888, 0.000000000000000000, 5.000000000000000000 ) ) ;
#116 = PERSON ( 'NEURÈENÝ', 'NEURÈENÝ', 'NEURÈENÝ', ('NEURÈENÝ'), ('NEURÈENÝ'), ('NEURÈENÝ') ) ;
#117 = CARTESIAN_POINT ( 'NONE',  ( 0.000000000000000000, 0.000000000000000000, 5.000000000000000000 ) ) ;
#118 = LOCAL_TIME ( 16, 22, 43.00000000000000000, #94 ) ;
#119 = CC_DESIGN_PERSON_AND_ORGANIZATION_ASSIGNMENT ( #169, #146, ( #9 ) ) ;
#120 = ORIENTED_EDGE ( 'NONE', *, *, #68, .T. ) ;
#121 = ORIENTED_EDGE ( 'NONE', *, *, #2, .T. ) ;
#122 = CC_DESIGN_APPROVAL ( #178, ( #246 ) ) ;
#123 = EDGE_LOOP ( 'NONE', ( #225, #185, #92, #27 ) ) ;
#124 = EDGE_CURVE ( 'NONE', #186, #31, #240, .T. ) ;
#125 = APPLICATION_PROTOCOL_DEFINITION ( 'international standard', 'config_control_design', 1994, #91 ) ;
#126 = VERTEX_POINT ( 'NONE', #98 ) ;
#127 = VECTOR ( 'NONE', #17, 1000.000000000000000 ) ;
#128 = AXIS2_PLACEMENT_3D ( 'NONE', #105, #181, #203 ) ;
#129 = CALENDAR_DATE ( 2023, 13, 2 ) ;
#130 = CARTESIAN_POINT ( 'NONE',  ( 0.000000000000000000, 0.000000000000000000, 0.000000000000000000 ) ) ;
#131 = LINE ( 'NONE', #115, #127 ) ;
#132 = AXIS2_PLACEMENT_3D ( 'NONE', #58, #36, #72 ) ;
#133 = FACE_OUTER_BOUND ( 'NONE', #170, .T. ) ;
#134 = DIRECTION ( 'NONE',  ( -0.000000000000000000, -0.000000000000000000, -1.000000000000000000 ) ) ;
#135 = EDGE_CURVE ( 'NONE', #186, #207, #149, .T. ) ;
#136 = DIRECTION ( 'NONE',  ( 1.000000000000000000, 0.000000000000000000, 0.000000000000000000 ) ) ;
#137 = CALENDAR_DATE ( 2023, 13, 2 ) ;
#138 = PERSON_AND_ORGANIZATION ( #116, #8 ) ;
#139 = CIRCLE ( 'NONE', #128, 3.000000000000000444 ) ;
#140 = VERTEX_POINT ( 'NONE', #176 ) ;
#141 = AXIS2_PLACEMENT_3D ( 'NONE', #22, #7, #136 ) ;
#142 = DIRECTION ( 'NONE',  ( 0.000000000000000000, 0.000000000000000000, 1.000000000000000000 ) ) ;
#143 = ORIENTED_EDGE ( 'NONE', *, *, #124, .F. ) ;
#144 = APPROVAL_STATUS ( 'not_yet_approved' ) ;
#145 = CC_DESIGN_PERSON_AND_ORGANIZATION_ASSIGNMENT ( #38, #5, ( #184 ) ) ;
#146 = PERSON_AND_ORGANIZATION_ROLE ( 'design_owner' ) ;
#147 = VECTOR ( 'NONE', #134, 1000.000000000000000 ) ;
#148 = VECTOR ( 'NONE', #174, 1000.000000000000000 ) ;
#149 = LINE ( 'NONE', #212, #107 ) ;
#150 = APPROVAL_PERSON_ORGANIZATION ( #108, #160, #59 ) ;
#151 = PERSON_AND_ORGANIZATION ( #116, #8 ) ;
#152 = CARTESIAN_POINT ( 'NONE',  ( 3.000000000000000444, 3.673940397442060361E-16, 5.000000000000000000 ) ) ;
#153 = DIRECTION ( 'NONE',  ( -1.000000000000000000, 0.000000000000000000, 0.000000000000000000 ) ) ;
#154 = AXIS2_PLACEMENT_3D ( 'NONE', #79, #159, #239 ) ;
#155 = LOCAL_TIME ( 16, 22, 43.00000000000000000, #237 ) ;
#156 = DIRECTION ( 'NONE',  ( 1.000000000000000000, 0.000000000000000000, 0.000000000000000000 ) ) ;
#157 = APPROVAL_STATUS ( 'not_yet_approved' ) ;
#158 = DATE_AND_TIME ( #137, #74 ) ;
#159 = DIRECTION ( 'NONE',  ( 0.000000000000000000, 0.000000000000000000, 1.000000000000000000 ) ) ;
#160 = APPROVAL ( #14, 'NEURÈENÝ' ) ;
#161 = ORIENTED_EDGE ( 'NONE', *, *, #201, .T. ) ;
#162 = ADVANCED_FACE ( 'NONE', ( #19 ), #63, .F. ) ;
#163 = EDGE_LOOP ( 'NONE', ( #85, #33 ) ) ;
#164 = AXIS2_PLACEMENT_3D ( 'NONE', #213, #96, #21 ) ;
#165 = DATE_AND_TIME ( #129, #51 ) ;
#166 = ADVANCED_FACE ( 'NONE', ( #76 ), #111, .T. ) ;
#167 = CC_DESIGN_PERSON_AND_ORGANIZATION_ASSIGNMENT ( #106, #71, ( #11 ) ) ;
#168 = EDGE_LOOP ( 'NONE', ( #109, #179 ) ) ;
#169 = PERSON_AND_ORGANIZATION ( #116, #8 ) ;
#170 = EDGE_LOOP ( 'NONE', ( #251, #121 ) ) ;
#171 = MECHANICAL_CONTEXT ( 'NONE', #78, 'mechanical' ) ;
#172 = ORIENTED_EDGE ( 'NONE', *, *, #37, .T. ) ;
#173 = DATE_TIME_ROLE ( 'creation_date' ) ;
#174 = DIRECTION ( 'NONE',  ( -0.000000000000000000, -0.000000000000000000, -1.000000000000000000 ) ) ;
#175 = CARTESIAN_POINT ( 'NONE',  ( -3.000000000000000444, 0.000000000000000000, 5.000000000000000000 ) ) ;
#176 = CARTESIAN_POINT ( 'NONE',  ( -3.000000000000000444, 0.000000000000000000, 125.0000000000000000 ) ) ;
#177 = UNCERTAINTY_MEASURE_WITH_UNIT (LENGTH_MEASURE( 1.000000000000000082E-05 ), #182, 'distance_accuracy_value', 'NONE');
#178 = APPROVAL ( #144, 'NEURÈENÝ' ) ;
#179 = ORIENTED_EDGE ( 'NONE', *, *, #68, .F. ) ;
#180 = AXIS2_PLACEMENT_3D ( 'NONE', #226, #30, #87 ) ;
#181 = DIRECTION ( 'NONE',  ( 0.000000000000000000, 0.000000000000000000, 1.000000000000000000 ) ) ;
#182 =( LENGTH_UNIT ( ) NAMED_UNIT ( * ) SI_UNIT ( .MILLI., .METRE. ) );
#183 = CC_DESIGN_APPROVAL ( #160, ( #11 ) ) ;
#184 = SECURITY_CLASSIFICATION ( '', '', #206 ) ;
#185 = ORIENTED_EDGE ( 'NONE', *, *, #34, .F. ) ;
#186 = VERTEX_POINT ( 'NONE', #235 ) ;
#187 = ADVANCED_FACE ( 'NONE', ( #133 ), #45, .T. ) ;
#188 = FACE_OUTER_BOUND ( 'NONE', #249, .T. ) ;
#189 = VERTEX_POINT ( 'NONE', #204 ) ;
#190 = DIRECTION ( 'NONE',  ( 1.000000000000000000, 0.000000000000000000, 0.000000000000000000 ) ) ;
#191 = AXIS2_PLACEMENT_3D ( 'NONE', #242, #223, #49 ) ;
#192 = ORIENTED_EDGE ( 'NONE', *, *, #2, .F. ) ;
#193 = DIRECTION ( 'NONE',  ( 0.000000000000000000, 0.000000000000000000, 1.000000000000000000 ) ) ;
#194 = CARTESIAN_POINT ( 'NONE',  ( 0.000000000000000000, 0.000000000000000000, 125.0000000000000000 ) ) ;
#195 = CYLINDRICAL_SURFACE ( 'NONE', #97, 6.000000000000000888 ) ;
#196 = COORDINATED_UNIVERSAL_TIME_OFFSET ( 1, 0, .AHEAD. ) ;
#197 = EDGE_CURVE ( 'NONE', #189, #207, #214, .T. ) ;
#198 = SHAPE_DEFINITION_REPRESENTATION ( #221, #241 ) ;
#199 =( GEOMETRIC_REPRESENTATION_CONTEXT ( 3 ) GLOBAL_UNCERTAINTY_ASSIGNED_CONTEXT ( ( #177 ) ) GLOBAL_UNIT_ASSIGNED_CONTEXT ( ( #182, #84, #75 ) ) REPRESENTATION_CONTEXT ( 'NONE', 'WORKASPACE' ) );
#200 = EDGE_LOOP ( 'NONE', ( #143, #12, #120, #229 ) ) ;
#201 = EDGE_CURVE ( 'NONE', #39, #73, #139, .T. ) ;
#202 = CLOSED_SHELL ( 'NONE', ( #166, #112, #53, #222, #162, #245, #187 ) ) ;
#203 = DIRECTION ( 'NONE',  ( 1.000000000000000000, 0.000000000000000000, 0.000000000000000000 ) ) ;
#204 = CARTESIAN_POINT ( 'NONE',  ( -6.000000000000000888, 0.000000000000000000, 0.000000000000000000 ) ) ;
#205 = DIRECTION ( 'NONE',  ( 1.000000000000000000, 0.000000000000000000, 0.000000000000000000 ) ) ;
#206 = SECURITY_CLASSIFICATION_LEVEL ( 'unclassified' ) ;
#207 = VERTEX_POINT ( 'NONE', #101 ) ;
#208 = APPROVAL_DATE_TIME ( #253, #178 ) ;
#209 = DIRECTION ( 'NONE',  ( 0.000000000000000000, 0.000000000000000000, 1.000000000000000000 ) ) ;
#210 = COORDINATED_UNIVERSAL_TIME_OFFSET ( 1, 0, .AHEAD. ) ;
#211 = EDGE_CURVE ( 'NONE', #31, #186, #28, .T. ) ;
#212 = CARTESIAN_POINT ( 'NONE',  ( 6.000000000000000888, 7.347880794884120722E-16, 5.000000000000000000 ) ) ;
#213 = CARTESIAN_POINT ( 'NONE',  ( 0.000000000000000000, 0.000000000000000000, 125.0000000000000000 ) ) ;
#214 = CIRCLE ( 'NONE', #180, 6.000000000000000888 ) ;
#215 = DIRECTION ( 'NONE',  ( -1.000000000000000000, 0.000000000000000000, 0.000000000000000000 ) ) ;
#216 = LINE ( 'NONE', #47, #147 ) ;
#217 = PRODUCT_RELATED_PRODUCT_CATEGORY ( 'detail', '', ( #9 ) ) ;
#218 = FACE_OUTER_BOUND ( 'NONE', #123, .T. ) ;
#219 = CC_DESIGN_APPROVAL ( #26, ( #184 ) ) ;
#220 = ORIENTED_EDGE ( 'NONE', *, *, #211, .F. ) ;
#221 = PRODUCT_DEFINITION_SHAPE ( 'NONE', 'NONE',  #246 ) ;
#222 = ADVANCED_FACE ( 'NONE', ( #35, #188 ), #67, .T. ) ;
#223 = DIRECTION ( 'NONE',  ( -0.000000000000000000, -0.000000000000000000, -1.000000000000000000 ) ) ;
#224 = ORIENTED_EDGE ( 'NONE', *, *, #56, .F. ) ;
#225 = ORIENTED_EDGE ( 'NONE', *, *, #37, .F. ) ;
#226 = CARTESIAN_POINT ( 'NONE',  ( 0.000000000000000000, 0.000000000000000000, 0.000000000000000000 ) ) ;
#227 = DIRECTION ( 'NONE',  ( 0.000000000000000000, 0.000000000000000000, 1.000000000000000000 ) ) ;
#228 = PERSON_AND_ORGANIZATION ( #116, #8 ) ;
#229 = ORIENTED_EDGE ( 'NONE', *, *, #102, .F. ) ;
#230 = CALENDAR_DATE ( 2023, 13, 2 ) ;
#231 = DIRECTION ( 'NONE',  ( -0.000000000000000000, -0.000000000000000000, -1.000000000000000000 ) ) ;
#232 = LOCAL_TIME ( 16, 22, 43.00000000000000000, #210 ) ;
#233 = FACE_OUTER_BOUND ( 'NONE', #89, .T. ) ;
#234 = CARTESIAN_POINT ( 'NONE',  ( 0.000000000000000000, 0.000000000000000000, 0.000000000000000000 ) ) ;
#235 = CARTESIAN_POINT ( 'NONE',  ( 6.000000000000000888, 7.347880794884120722E-16, 5.000000000000000000 ) ) ;
#236 = AXIS2_PLACEMENT_3D ( 'NONE', #130, #193, #156 ) ;
#237 = COORDINATED_UNIVERSAL_TIME_OFFSET ( 1, 0, .AHEAD. ) ;
#238 = AXIS2_PLACEMENT_3D ( 'NONE', #234, #110, #190 ) ;
#239 = DIRECTION ( 'NONE',  ( 1.000000000000000000, 0.000000000000000000, -0.000000000000000000 ) ) ;
#240 = CIRCLE ( 'NONE', #141, 6.000000000000000888 ) ;
#241 = ADVANCED_BREP_SHAPE_REPRESENTATION ( '8a5d', ( #23, #238 ), #199 ) ;
#242 = CARTESIAN_POINT ( 'NONE',  ( 0.000000000000000000, 0.000000000000000000, 125.0000000000000000 ) ) ;
#243 = CC_DESIGN_SECURITY_CLASSIFICATION ( #184, ( #11 ) ) ;
#244 = CC_DESIGN_PERSON_AND_ORGANIZATION_ASSIGNMENT ( #62, #250, ( #246 ) ) ;
#245 = ADVANCED_FACE ( 'NONE', ( #218 ), #66, .T. ) ;
#246 = PRODUCT_DEFINITION ( 'NEZNÁMÝ', '', #11, #6 ) ;
#247 = AXIS2_PLACEMENT_3D ( 'NONE', #70, #227, #205 ) ;
#248 = APPROVAL_DATE_TIME ( #165, #160 ) ;
#249 = EDGE_LOOP ( 'NONE', ( #13, #15 ) ) ;
#250 = PERSON_AND_ORGANIZATION_ROLE ( 'creator' ) ;
#251 = ORIENTED_EDGE ( 'NONE', *, *, #34, .T. ) ;
#252 = AXIS2_PLACEMENT_3D ( 'NONE', #194, #95, #153 ) ;
#253 = DATE_AND_TIME ( #113, #232 ) ;
#254 = DIRECTION ( 'NONE',  ( -1.000000000000000000, 0.000000000000000000, 0.000000000000000000 ) ) ;
#255 = CARTESIAN_POINT ( 'NONE',  ( 0.000000000000000000, 0.000000000000000000, 5.000000000000000000 ) ) ;
ENDSEC;
END-ISO-10303-21;
