ISO-10303-21;
HEADER;
FILE_DESCRIPTION (( 'STEP AP203' ),
    '1' );
FILE_NAME ('8b8a.STEP',
    '2024-04-24T06:20:48',
    ( '' ),
    ( '' ),
    'SwSTEP 2.0',
    'SolidWorks 2019',
    '' );
FILE_SCHEMA (( 'CONFIG_CONTROL_DESIGN' ));
ENDSEC;

DATA;
#1 = ORIENTED_EDGE ( 'NONE', *, *, #143, .F. ) ;
#2 = CIRCLE ( 'NONE', #198, 1.000000000000000000 ) ;
#3 = APPLICATION_PROTOCOL_DEFINITION ( 'international standard', 'config_control_design', 1994, #90 ) ;
#4 = CARTESIAN_POINT ( 'NONE',  ( 0.000000000000000000, 0.000000000000000000, 0.000000000000000000 ) ) ;
#5 = EDGE_CURVE ( 'NONE', #220, #184, #71, .T. ) ;
#6 =( NAMED_UNIT ( * ) SI_UNIT ( $, .STERADIAN. ) SOLID_ANGLE_UNIT ( ) );
#7 = ORIENTED_EDGE ( 'NONE', *, *, #102, .F. ) ;
#8 = PERSON_AND_ORGANIZATION ( #215, #117 ) ;
#9 = DIRECTION ( 'NONE',  ( -0.000000000000000000, -0.000000000000000000, -1.000000000000000000 ) ) ;
#10 = SECURITY_CLASSIFICATION_LEVEL ( 'unclassified' ) ;
#11 =( GEOMETRIC_REPRESENTATION_CONTEXT ( 3 ) GLOBAL_UNCERTAINTY_ASSIGNED_CONTEXT ( ( #202 ) ) GLOBAL_UNIT_ASSIGNED_CONTEXT ( ( #239, #40, #6 ) ) REPRESENTATION_CONTEXT ( 'NONE', 'WORKASPACE' ) );
#12 = APPROVAL ( #160, 'NEURÈENÝ' ) ;
#13 = DIRECTION ( 'NONE',  ( 1.000000000000000000, 0.000000000000000000, 0.000000000000000000 ) ) ;
#14 = FACE_OUTER_BOUND ( 'NONE', #183, .T. ) ;
#15 = APPROVAL ( #99, 'NEURÈENÝ' ) ;
#16 = CYLINDRICAL_SURFACE ( 'NONE', #134, 2.000000000000000000 ) ;
#17 = ORIENTED_EDGE ( 'NONE', *, *, #118, .T. ) ;
#18 = AXIS2_PLACEMENT_3D ( 'NONE', #31, #196, #229 ) ;
#19 = PRODUCT_DEFINITION ( 'NEZNÁMÝ', '', #155, #37 ) ;
#20 = CC_DESIGN_SECURITY_CLASSIFICATION ( #88, ( #155 ) ) ;
#21 = CARTESIAN_POINT ( 'NONE',  ( 2.000000000000000000, 2.449293598294706414E-16, 2.000000000000000000 ) ) ;
#22 = EDGE_LOOP ( 'NONE', ( #200, #25, #109, #218 ) ) ;
#23 = FACE_OUTER_BOUND ( 'NONE', #33, .T. ) ;
#24 = AXIS2_PLACEMENT_3D ( 'NONE', #108, #171, #213 ) ;
#25 = ORIENTED_EDGE ( 'NONE', *, *, #186, .F. ) ;
#26 = ORIENTED_EDGE ( 'NONE', *, *, #102, .T. ) ;
#27 = ORIENTED_EDGE ( 'NONE', *, *, #170, .F. ) ;
#28 = APPROVAL_PERSON_ORGANIZATION ( #244, #127, #132 ) ;
#29 = FACE_BOUND ( 'NONE', #89, .T. ) ;
#30 = CARTESIAN_POINT ( 'NONE',  ( -1.000000000000000000, 0.000000000000000000, 100.0000000000000000 ) ) ;
#31 = CARTESIAN_POINT ( 'NONE',  ( 0.000000000000000000, 0.000000000000000000, 2.000000000000000000 ) ) ;
#32 = PLANE ( 'NONE',  #24 ) ;
#33 = EDGE_LOOP ( 'NONE', ( #26, #43 ) ) ;
#34 = CARTESIAN_POINT ( 'NONE',  ( 0.000000000000000000, 0.000000000000000000, 2.000000000000000000 ) ) ;
#35 = CARTESIAN_POINT ( 'NONE',  ( 1.000000000000000000, 1.224646799147353207E-16, 2.000000000000000000 ) ) ;
#36 = ORIENTED_EDGE ( 'NONE', *, *, #225, .F. ) ;
#37 = DESIGN_CONTEXT ( 'detailed design', #140, 'design' ) ;
#38 = CARTESIAN_POINT ( 'NONE',  ( 1.000000000000000000, 1.224646799147353207E-16, 100.0000000000000000 ) ) ;
#39 = CIRCLE ( 'NONE', #41, 1.000000000000000000 ) ;
#40 =( NAMED_UNIT ( * ) PLANE_ANGLE_UNIT ( ) SI_UNIT ( $, .RADIAN. ) );
#41 = AXIS2_PLACEMENT_3D ( 'NONE', #211, #246, #169 ) ;
#42 = CC_DESIGN_APPROVAL ( #15, ( #155 ) ) ;
#43 = ORIENTED_EDGE ( 'NONE', *, *, #225, .T. ) ;
#44 = DATE_AND_TIME ( #158, #49 ) ;
#45 = EDGE_LOOP ( 'NONE', ( #1, #153 ) ) ;
#46 = DIRECTION ( 'NONE',  ( 1.000000000000000000, 0.000000000000000000, 0.000000000000000000 ) ) ;
#47 = DIRECTION ( 'NONE',  ( -1.000000000000000000, 0.000000000000000000, 0.000000000000000000 ) ) ;
#48 = AXIS2_PLACEMENT_3D ( 'NONE', #130, #94, #178 ) ;
#49 = LOCAL_TIME ( 8, 20, 48.00000000000000000, #249 ) ;
#50 = SHAPE_DEFINITION_REPRESENTATION ( #87, #80 ) ;
#51 = CARTESIAN_POINT ( 'NONE',  ( 0.000000000000000000, 0.000000000000000000, 100.0000000000000000 ) ) ;
#52 = EDGE_LOOP ( 'NONE', ( #106, #110, #177, #174 ) ) ;
#53 = CIRCLE ( 'NONE', #237, 1.000000000000000000 ) ;
#54 = EDGE_CURVE ( 'NONE', #184, #75, #238, .T. ) ;
#55 = ORIENTED_EDGE ( 'NONE', *, *, #5, .T. ) ;
#56 = FACE_OUTER_BOUND ( 'NONE', #98, .T. ) ;
#57 = DIRECTION ( 'NONE',  ( 1.000000000000000000, 0.000000000000000000, -0.000000000000000000 ) ) ;
#58 = CYLINDRICAL_SURFACE ( 'NONE', #139, 1.000000000000000000 ) ;
#59 = APPROVAL_STATUS ( 'not_yet_approved' ) ;
#60 = CALENDAR_DATE ( 2024, 24, 4 ) ;
#61 = COORDINATED_UNIVERSAL_TIME_OFFSET ( 1, 0, .AHEAD. ) ;
#62 = PERSON_AND_ORGANIZATION_ROLE ( 'creator' ) ;
#63 = AXIS2_PLACEMENT_3D ( 'NONE', #51, #124, #115 ) ;
#64 = PLANE ( 'NONE',  #180 ) ;
#65 = CIRCLE ( 'NONE', #216, 2.000000000000000000 ) ;
#66 = APPROVAL_DATE_TIME ( #205, #12 ) ;
#67 = FACE_OUTER_BOUND ( 'NONE', #45, .T. ) ;
#68 = DIRECTION ( 'NONE',  ( 0.000000000000000000, 0.000000000000000000, 1.000000000000000000 ) ) ;
#69 = EDGE_CURVE ( 'NONE', #154, #75, #148, .T. ) ;
#70 = DIRECTION ( 'NONE',  ( 0.000000000000000000, 0.000000000000000000, 1.000000000000000000 ) ) ;
#71 = CIRCLE ( 'NONE', #166, 2.000000000000000000 ) ;
#72 = CC_DESIGN_APPROVAL ( #127, ( #19 ) ) ;
#73 = CARTESIAN_POINT ( 'NONE',  ( 0.000000000000000000, 0.000000000000000000, 100.0000000000000000 ) ) ;
#74 = CC_DESIGN_PERSON_AND_ORGANIZATION_ASSIGNMENT ( #207, #136, ( #155 ) ) ;
#75 = VERTEX_POINT ( 'NONE', #250 ) ;
#76 = DIRECTION ( 'NONE',  ( 0.000000000000000000, 0.000000000000000000, 1.000000000000000000 ) ) ;
#77 = DIRECTION ( 'NONE',  ( 0.000000000000000000, 0.000000000000000000, 1.000000000000000000 ) ) ;
#78 = PERSON_AND_ORGANIZATION_ROLE ( 'design_owner' ) ;
#79 = PRODUCT ( '8b8a', '8b8a', '', ( #243 ) ) ;
#80 = ADVANCED_BREP_SHAPE_REPRESENTATION ( '8b8a', ( #119, #189 ), #11 ) ;
#81 = EDGE_CURVE ( 'NONE', #159, #227, #39, .T. ) ;
#82 = DATE_AND_TIME ( #187, #126 ) ;
#83 = CARTESIAN_POINT ( 'NONE',  ( -2.000000000000000000, 0.000000000000000000, 2.000000000000000000 ) ) ;
#84 = DATE_TIME_ROLE ( 'classification_date' ) ;
#85 = AXIS2_PLACEMENT_3D ( 'NONE', #135, #231, #47 ) ;
#86 = DIRECTION ( 'NONE',  ( -0.000000000000000000, -0.000000000000000000, -1.000000000000000000 ) ) ;
#87 = PRODUCT_DEFINITION_SHAPE ( 'NONE', 'NONE',  #19 ) ;
#88 = SECURITY_CLASSIFICATION ( '', '', #10 ) ;
#89 = EDGE_LOOP ( 'NONE', ( #235, #240 ) ) ;
#90 = APPLICATION_CONTEXT ( 'configuration controlled 3d designs of mechanical parts and assemblies' ) ;
#91 = ORIENTED_EDGE ( 'NONE', *, *, #81, .T. ) ;
#92 = DIRECTION ( 'NONE',  ( -1.000000000000000000, 0.000000000000000000, 0.000000000000000000 ) ) ;
#93 = EDGE_CURVE ( 'NONE', #192, #159, #161, .T. ) ;
#94 = DIRECTION ( 'NONE',  ( -0.000000000000000000, -0.000000000000000000, -1.000000000000000000 ) ) ;
#95 = DIRECTION ( 'NONE',  ( -0.000000000000000000, -0.000000000000000000, -1.000000000000000000 ) ) ;
#96 = AXIS2_PLACEMENT_3D ( 'NONE', #4, #77, #46 ) ;
#97 = VERTEX_POINT ( 'NONE', #38 ) ;
#98 = EDGE_LOOP ( 'NONE', ( #36, #129, #17, #113 ) ) ;
#99 = APPROVAL_STATUS ( 'not_yet_approved' ) ;
#100 = PERSON_AND_ORGANIZATION ( #215, #117 ) ;
#101 = CIRCLE ( 'NONE', #18, 1.000000000000000000 ) ;
#102 = EDGE_CURVE ( 'NONE', #192, #97, #2, .T. ) ;
#103 = CARTESIAN_POINT ( 'NONE',  ( 0.000000000000000000, 0.000000000000000000, 2.000000000000000000 ) ) ;
#104 = CARTESIAN_POINT ( 'NONE',  ( 1.000000000000000000, 1.224646799147353207E-16, 100.0000000000000000 ) ) ;
#105 = ADVANCED_FACE ( 'NONE', ( #67 ), #64, .F. ) ;
#106 = ORIENTED_EDGE ( 'NONE', *, *, #5, .F. ) ;
#107 = APPROVAL_PERSON_ORGANIZATION ( #122, #12, #133 ) ;
#108 = CARTESIAN_POINT ( 'NONE',  ( 0.000000000000000000, 0.000000000000000000, 2.000000000000000000 ) ) ;
#109 = ORIENTED_EDGE ( 'NONE', *, *, #54, .T. ) ;
#110 = ORIENTED_EDGE ( 'NONE', *, *, #212, .T. ) ;
#111 = VECTOR ( 'NONE', #131, 1000.000000000000000 ) ;
#112 = LINE ( 'NONE', #114, #111 ) ;
#113 = ORIENTED_EDGE ( 'NONE', *, *, #93, .F. ) ;
#114 = CARTESIAN_POINT ( 'NONE',  ( 2.000000000000000000, 2.449293598294706414E-16, 2.000000000000000000 ) ) ;
#115 = DIRECTION ( 'NONE',  ( 1.000000000000000000, 0.000000000000000000, -0.000000000000000000 ) ) ;
#116 = ADVANCED_FACE ( 'NONE', ( #23 ), #142, .T. ) ;
#117 = ORGANIZATION ( 'NEURÈENÝ', 'NEURÈENÝ', '' ) ;
#118 = EDGE_CURVE ( 'NONE', #227, #159, #101, .T. ) ;
#119 = MANIFOLD_SOLID_BREP ( 'Pøidat vysunutím3', #125 ) ;
#120 = DATE_TIME_ROLE ( 'creation_date' ) ;
#121 = CARTESIAN_POINT ( 'NONE',  ( 2.000000000000000000, 2.449293598294706414E-16, 0.000000000000000000 ) ) ;
#122 = PERSON_AND_ORGANIZATION ( #215, #117 ) ;
#123 = DIRECTION ( 'NONE',  ( 0.000000000000000000, 0.000000000000000000, 1.000000000000000000 ) ) ;
#124 = DIRECTION ( 'NONE',  ( 0.000000000000000000, 0.000000000000000000, 1.000000000000000000 ) ) ;
#125 = CLOSED_SHELL ( 'NONE', ( #209, #193, #254, #168, #105, #152, #116 ) ) ;
#126 = LOCAL_TIME ( 8, 20, 48.00000000000000000, #61 ) ;
#127 = APPROVAL ( #59, 'NEURÈENÝ' ) ;
#128 = DIRECTION ( 'NONE',  ( -1.000000000000000000, 0.000000000000000000, 0.000000000000000000 ) ) ;
#129 = ORIENTED_EDGE ( 'NONE', *, *, #170, .T. ) ;
#130 = CARTESIAN_POINT ( 'NONE',  ( 0.000000000000000000, 0.000000000000000000, 2.000000000000000000 ) ) ;
#131 = DIRECTION ( 'NONE',  ( -0.000000000000000000, -0.000000000000000000, -1.000000000000000000 ) ) ;
#132 = APPROVAL_ROLE ( '' ) ;
#133 = APPROVAL_ROLE ( '' ) ;
#134 = AXIS2_PLACEMENT_3D ( 'NONE', #34, #144, #128 ) ;
#135 = CARTESIAN_POINT ( 'NONE',  ( 0.000000000000000000, 0.000000000000000000, 100.0000000000000000 ) ) ;
#136 = PERSON_AND_ORGANIZATION_ROLE ( 'design_supplier' ) ;
#137 = VECTOR ( 'NONE', #190, 1000.000000000000000 ) ;
#138 = DIRECTION ( 'NONE',  ( 0.000000000000000000, 0.000000000000000000, 1.000000000000000000 ) ) ;
#139 = AXIS2_PLACEMENT_3D ( 'NONE', #221, #95, #92 ) ;
#140 = APPLICATION_CONTEXT ( 'configuration controlled 3d designs of mechanical parts and assemblies' ) ;
#141 = APPROVAL_DATE_TIME ( #44, #15 ) ;
#142 = PLANE ( 'NONE',  #63 ) ;
#143 = EDGE_CURVE ( 'NONE', #75, #154, #255, .T. ) ;
#144 = DIRECTION ( 'NONE',  ( -0.000000000000000000, -0.000000000000000000, -1.000000000000000000 ) ) ;
#145 = LOCAL_TIME ( 8, 20, 48.00000000000000000, #223 ) ;
#146 = CC_DESIGN_DATE_AND_TIME_ASSIGNMENT ( #232, #84, ( #88 ) ) ;
#147 = LINE ( 'NONE', #104, #137 ) ;
#148 = CIRCLE ( 'NONE', #251, 2.000000000000000000 ) ;
#149 = DIRECTION ( 'NONE',  ( 1.000000000000000000, 0.000000000000000000, 0.000000000000000000 ) ) ;
#150 = APPROVAL_PERSON_ORGANIZATION ( #8, #15, #164 ) ;
#151 = DATE_AND_TIME ( #173, #145 ) ;
#152 = ADVANCED_FACE ( 'NONE', ( #206 ), #248, .T. ) ;
#153 = ORIENTED_EDGE ( 'NONE', *, *, #69, .F. ) ;
#154 = VERTEX_POINT ( 'NONE', #121 ) ;
#155 = PRODUCT_DEFINITION_FORMATION_WITH_SPECIFIED_SOURCE ( 'LIBOVOLNÝ', '', #79, .NOT_KNOWN. ) ;
#156 = DIRECTION ( 'NONE',  ( 1.000000000000000000, 0.000000000000000000, 0.000000000000000000 ) ) ;
#157 = APPLICATION_PROTOCOL_DEFINITION ( 'international standard', 'config_control_design', 1994, #140 ) ;
#158 = CALENDAR_DATE ( 2024, 24, 4 ) ;
#159 = VERTEX_POINT ( 'NONE', #208 ) ;
#160 = APPROVAL_STATUS ( 'not_yet_approved' ) ;
#161 = LINE ( 'NONE', #30, #224 ) ;
#162 = PRODUCT_RELATED_PRODUCT_CATEGORY ( 'detail', '', ( #79 ) ) ;
#163 = CARTESIAN_POINT ( 'NONE',  ( 0.000000000000000000, 0.000000000000000000, 0.000000000000000000 ) ) ;
#164 = APPROVAL_ROLE ( '' ) ;
#165 = CARTESIAN_POINT ( 'NONE',  ( 0.000000000000000000, 0.000000000000000000, 0.000000000000000000 ) ) ;
#166 = AXIS2_PLACEMENT_3D ( 'NONE', #172, #70, #149 ) ;
#167 = CALENDAR_DATE ( 2024, 24, 4 ) ;
#168 = ADVANCED_FACE ( 'NONE', ( #29, #14 ), #32, .T. ) ;
#169 = DIRECTION ( 'NONE',  ( 1.000000000000000000, 0.000000000000000000, 0.000000000000000000 ) ) ;
#170 = EDGE_CURVE ( 'NONE', #97, #227, #147, .T. ) ;
#171 = DIRECTION ( 'NONE',  ( 0.000000000000000000, 0.000000000000000000, 1.000000000000000000 ) ) ;
#172 = CARTESIAN_POINT ( 'NONE',  ( 0.000000000000000000, 0.000000000000000000, 2.000000000000000000 ) ) ;
#173 = CALENDAR_DATE ( 2024, 24, 4 ) ;
#174 = ORIENTED_EDGE ( 'NONE', *, *, #54, .F. ) ;
#175 = LOCAL_TIME ( 8, 20, 48.00000000000000000, #252 ) ;
#176 = DIRECTION ( 'NONE',  ( 1.000000000000000000, 0.000000000000000000, 0.000000000000000000 ) ) ;
#177 = ORIENTED_EDGE ( 'NONE', *, *, #69, .T. ) ;
#178 = DIRECTION ( 'NONE',  ( -1.000000000000000000, 0.000000000000000000, 0.000000000000000000 ) ) ;
#179 = DIRECTION ( 'NONE',  ( 0.000000000000000000, 0.000000000000000000, 1.000000000000000000 ) ) ;
#180 = AXIS2_PLACEMENT_3D ( 'NONE', #163, #138, #57 ) ;
#181 = LOCAL_TIME ( 8, 20, 48.00000000000000000, #210 ) ;
#182 = PERSON_AND_ORGANIZATION ( #215, #117 ) ;
#183 = EDGE_LOOP ( 'NONE', ( #241, #55 ) ) ;
#184 = VERTEX_POINT ( 'NONE', #234 ) ;
#185 = DIRECTION ( 'NONE',  ( 1.000000000000000000, 0.000000000000000000, 0.000000000000000000 ) ) ;
#186 = EDGE_CURVE ( 'NONE', #184, #220, #65, .T. ) ;
#187 = CALENDAR_DATE ( 2024, 24, 4 ) ;
#188 = CARTESIAN_POINT ( 'NONE',  ( 0.000000000000000000, 0.000000000000000000, 100.0000000000000000 ) ) ;
#189 = AXIS2_PLACEMENT_3D ( 'NONE', #197, #76, #156 ) ;
#190 = DIRECTION ( 'NONE',  ( -0.000000000000000000, -0.000000000000000000, -1.000000000000000000 ) ) ;
#191 = CARTESIAN_POINT ( 'NONE',  ( -1.000000000000000000, 0.000000000000000000, 100.0000000000000000 ) ) ;
#192 = VERTEX_POINT ( 'NONE', #191 ) ;
#193 = ADVANCED_FACE ( 'NONE', ( #219 ), #16, .T. ) ;
#194 = CYLINDRICAL_SURFACE ( 'NONE', #48, 2.000000000000000000 ) ;
#195 = CC_DESIGN_PERSON_AND_ORGANIZATION_ASSIGNMENT ( #100, #62, ( #155 ) ) ;
#196 = DIRECTION ( 'NONE',  ( 0.000000000000000000, 0.000000000000000000, 1.000000000000000000 ) ) ;
#197 = CARTESIAN_POINT ( 'NONE',  ( 0.000000000000000000, 0.000000000000000000, 0.000000000000000000 ) ) ;
#198 = AXIS2_PLACEMENT_3D ( 'NONE', #188, #242, #13 ) ;
#199 = VECTOR ( 'NONE', #86, 1000.000000000000000 ) ;
#200 = ORIENTED_EDGE ( 'NONE', *, *, #212, .F. ) ;
#201 = CC_DESIGN_APPROVAL ( #12, ( #88 ) ) ;
#202 = UNCERTAINTY_MEASURE_WITH_UNIT (LENGTH_MEASURE( 1.000000000000000082E-05 ), #239, 'distance_accuracy_value', 'NONE');
#203 = EDGE_LOOP ( 'NONE', ( #27, #7, #214, #91 ) ) ;
#204 = CC_DESIGN_PERSON_AND_ORGANIZATION_ASSIGNMENT ( #182, #78, ( #79 ) ) ;
#205 = DATE_AND_TIME ( #167, #181 ) ;
#206 = FACE_OUTER_BOUND ( 'NONE', #203, .T. ) ;
#207 = PERSON_AND_ORGANIZATION ( #215, #117 ) ;
#208 = CARTESIAN_POINT ( 'NONE',  ( -1.000000000000000000, 0.000000000000000000, 2.000000000000000000 ) ) ;
#209 = ADVANCED_FACE ( 'NONE', ( #56 ), #58, .T. ) ;
#210 = COORDINATED_UNIVERSAL_TIME_OFFSET ( 1, 0, .AHEAD. ) ;
#211 = CARTESIAN_POINT ( 'NONE',  ( 0.000000000000000000, 0.000000000000000000, 2.000000000000000000 ) ) ;
#212 = EDGE_CURVE ( 'NONE', #220, #154, #112, .T. ) ;
#213 = DIRECTION ( 'NONE',  ( 1.000000000000000000, 0.000000000000000000, -0.000000000000000000 ) ) ;
#214 = ORIENTED_EDGE ( 'NONE', *, *, #93, .T. ) ;
#215 = PERSON ( 'NEURÈENÝ', 'NEURÈENÝ', 'NEURÈENÝ', ('NEURÈENÝ'), ('NEURÈENÝ'), ('NEURÈENÝ') ) ;
#216 = AXIS2_PLACEMENT_3D ( 'NONE', #103, #68, #236 ) ;
#217 = CC_DESIGN_DATE_AND_TIME_ASSIGNMENT ( #82, #120, ( #19 ) ) ;
#218 = ORIENTED_EDGE ( 'NONE', *, *, #143, .T. ) ;
#219 = FACE_OUTER_BOUND ( 'NONE', #52, .T. ) ;
#220 = VERTEX_POINT ( 'NONE', #21 ) ;
#221 = CARTESIAN_POINT ( 'NONE',  ( 0.000000000000000000, 0.000000000000000000, 100.0000000000000000 ) ) ;
#222 = FACE_OUTER_BOUND ( 'NONE', #22, .T. ) ;
#223 = COORDINATED_UNIVERSAL_TIME_OFFSET ( 1, 0, .AHEAD. ) ;
#224 = VECTOR ( 'NONE', #9, 1000.000000000000000 ) ;
#225 = EDGE_CURVE ( 'NONE', #97, #192, #53, .T. ) ;
#226 = PERSON_AND_ORGANIZATION ( #215, #117 ) ;
#227 = VERTEX_POINT ( 'NONE', #35 ) ;
#228 = APPROVAL_DATE_TIME ( #151, #127 ) ;
#229 = DIRECTION ( 'NONE',  ( 1.000000000000000000, 0.000000000000000000, 0.000000000000000000 ) ) ;
#230 = PERSON_AND_ORGANIZATION ( #215, #117 ) ;
#231 = DIRECTION ( 'NONE',  ( -0.000000000000000000, -0.000000000000000000, -1.000000000000000000 ) ) ;
#232 = DATE_AND_TIME ( #60, #175 ) ;
#233 = PERSON_AND_ORGANIZATION_ROLE ( 'creator' ) ;
#234 = CARTESIAN_POINT ( 'NONE',  ( -2.000000000000000000, 0.000000000000000000, 2.000000000000000000 ) ) ;
#235 = ORIENTED_EDGE ( 'NONE', *, *, #81, .F. ) ;
#236 = DIRECTION ( 'NONE',  ( 1.000000000000000000, 0.000000000000000000, 0.000000000000000000 ) ) ;
#237 = AXIS2_PLACEMENT_3D ( 'NONE', #73, #179, #176 ) ;
#238 = LINE ( 'NONE', #83, #199 ) ;
#239 =( LENGTH_UNIT ( ) NAMED_UNIT ( * ) SI_UNIT ( .MILLI., .METRE. ) );
#240 = ORIENTED_EDGE ( 'NONE', *, *, #118, .F. ) ;
#241 = ORIENTED_EDGE ( 'NONE', *, *, #186, .T. ) ;
#242 = DIRECTION ( 'NONE',  ( 0.000000000000000000, 0.000000000000000000, 1.000000000000000000 ) ) ;
#243 = MECHANICAL_CONTEXT ( 'NONE', #90, 'mechanical' ) ;
#244 = PERSON_AND_ORGANIZATION ( #215, #117 ) ;
#245 = PERSON_AND_ORGANIZATION_ROLE ( 'classification_officer' ) ;
#246 = DIRECTION ( 'NONE',  ( 0.000000000000000000, 0.000000000000000000, 1.000000000000000000 ) ) ;
#247 = CC_DESIGN_PERSON_AND_ORGANIZATION_ASSIGNMENT ( #230, #245, ( #88 ) ) ;
#248 = CYLINDRICAL_SURFACE ( 'NONE', #85, 1.000000000000000000 ) ;
#249 = COORDINATED_UNIVERSAL_TIME_OFFSET ( 1, 0, .AHEAD. ) ;
#250 = CARTESIAN_POINT ( 'NONE',  ( -2.000000000000000000, 0.000000000000000000, 0.000000000000000000 ) ) ;
#251 = AXIS2_PLACEMENT_3D ( 'NONE', #165, #123, #185 ) ;
#252 = COORDINATED_UNIVERSAL_TIME_OFFSET ( 1, 0, .AHEAD. ) ;
#253 = CC_DESIGN_PERSON_AND_ORGANIZATION_ASSIGNMENT ( #226, #233, ( #19 ) ) ;
#254 = ADVANCED_FACE ( 'NONE', ( #222 ), #194, .T. ) ;
#255 = CIRCLE ( 'NONE', #96, 2.000000000000000000 ) ;
ENDSEC;
END-ISO-10303-21;
