ISO-10303-21;
HEADER;
FILE_DESCRIPTION (( 'STEP AP203' ),
    '1' );
FILE_NAME ('43b0.STEP',
    '2023-02-13T13:12:17',
    ( '' ),
    ( '' ),
    'SwSTEP 2.0',
    'SolidWorks 2019',
    '' );
FILE_SCHEMA (( 'CONFIG_CONTROL_DESIGN' ));
ENDSEC;

DATA;
#1 = PERSON_AND_ORGANIZATION ( #8, #97 ) ;
#2 = VERTEX_POINT ( 'NONE', #147 ) ;
#3 = APPROVAL_DATE_TIME ( #192, #112 ) ;
#4 = APPROVAL_PERSON_ORGANIZATION ( #249, #5, #129 ) ;
#5 = APPROVAL ( #173, 'NEURÈENÝ' ) ;
#6 = CYLINDRICAL_SURFACE ( 'NONE', #43, 8.000000000000000000 ) ;
#7 = DIRECTION ( 'NONE',  ( 0.000000000000000000, 0.000000000000000000, 1.000000000000000000 ) ) ;
#8 = PERSON ( 'NEURÈENÝ', 'NEURÈENÝ', 'NEURÈENÝ', ('NEURÈENÝ'), ('NEURÈENÝ'), ('NEURÈENÝ') ) ;
#9 = ORIENTED_EDGE ( 'NONE', *, *, #119, .F. ) ;
#10 = ORIENTED_EDGE ( 'NONE', *, *, #244, .F. ) ;
#11 = CLOSED_SHELL ( 'NONE', ( #195, #239, #164, #33, #209, #69, #255 ) ) ;
#12 = AXIS2_PLACEMENT_3D ( 'NONE', #61, #190, #172 ) ;
#13 = CC_DESIGN_DATE_AND_TIME_ASSIGNMENT ( #151, #194, ( #252 ) ) ;
#14 = DIRECTION ( 'NONE',  ( -1.000000000000000000, 0.000000000000000000, 0.000000000000000000 ) ) ;
#15 = APPROVAL_DATE_TIME ( #230, #5 ) ;
#16 = CARTESIAN_POINT ( 'NONE',  ( 0.000000000000000000, 0.000000000000000000, 5.000000000000000000 ) ) ;
#17 =( NAMED_UNIT ( * ) PLANE_ANGLE_UNIT ( ) SI_UNIT ( $, .RADIAN. ) );
#18 =( LENGTH_UNIT ( ) NAMED_UNIT ( * ) SI_UNIT ( .MILLI., .METRE. ) );
#19 = COORDINATED_UNIVERSAL_TIME_OFFSET ( 1, 0, .AHEAD. ) ;
#20 = AXIS2_PLACEMENT_3D ( 'NONE', #213, #193, #177 ) ;
#21 = DIRECTION ( 'NONE',  ( 0.000000000000000000, 0.000000000000000000, 1.000000000000000000 ) ) ;
#22 = CC_DESIGN_PERSON_AND_ORGANIZATION_ASSIGNMENT ( #133, #176, ( #252 ) ) ;
#23 = VERTEX_POINT ( 'NONE', #60 ) ;
#24 = PERSON_AND_ORGANIZATION ( #8, #97 ) ;
#25 = VECTOR ( 'NONE', #29, 1000.000000000000000 ) ;
#26 = COORDINATED_UNIVERSAL_TIME_OFFSET ( 1, 0, .AHEAD. ) ;
#27 = EDGE_CURVE ( 'NONE', #154, #2, #128, .T. ) ;
#28 = PRODUCT ( '43b0', '43b0', '', ( #226 ) ) ;
#29 = DIRECTION ( 'NONE',  ( -0.000000000000000000, -0.000000000000000000, -1.000000000000000000 ) ) ;
#30 = CALENDAR_DATE ( 2023, 13, 2 ) ;
#31 = LOCAL_TIME ( 14, 12, 17.00000000000000000, #83 ) ;
#32 = DIRECTION ( 'NONE',  ( -1.000000000000000000, 0.000000000000000000, 0.000000000000000000 ) ) ;
#33 = ADVANCED_FACE ( 'NONE', ( #170, #207 ), #56, .T. ) ;
#34 = EDGE_LOOP ( 'NONE', ( #10, #92, #107, #216 ) ) ;
#35 = VECTOR ( 'NONE', #227, 1000.000000000000000 ) ;
#36 = AXIS2_PLACEMENT_3D ( 'NONE', #197, #74, #183 ) ;
#37 = FACE_OUTER_BOUND ( 'NONE', #241, .T. ) ;
#38 = CARTESIAN_POINT ( 'NONE',  ( 8.000000000000000000, 9.797174393178825657E-16, 5.000000000000000000 ) ) ;
#39 = CIRCLE ( 'NONE', #171, 5.500000000000000000 ) ;
#40 = CARTESIAN_POINT ( 'NONE',  ( 0.000000000000000000, 0.000000000000000000, 5.000000000000000000 ) ) ;
#41 = DIRECTION ( 'NONE',  ( 0.000000000000000000, 0.000000000000000000, 1.000000000000000000 ) ) ;
#42 = PERSON_AND_ORGANIZATION ( #8, #97 ) ;
#43 = AXIS2_PLACEMENT_3D ( 'NONE', #182, #165, #142 ) ;
#44 = PERSON_AND_ORGANIZATION ( #8, #97 ) ;
#45 = DIRECTION ( 'NONE',  ( 0.000000000000000000, 0.000000000000000000, 1.000000000000000000 ) ) ;
#46 = AXIS2_PLACEMENT_3D ( 'NONE', #16, #21, #174 ) ;
#47 = AXIS2_PLACEMENT_3D ( 'NONE', #221, #136, #49 ) ;
#48 = ORIENTED_EDGE ( 'NONE', *, *, #160, .T. ) ;
#49 = DIRECTION ( 'NONE',  ( 1.000000000000000000, 0.000000000000000000, 0.000000000000000000 ) ) ;
#50 = ORIENTED_EDGE ( 'NONE', *, *, #244, .T. ) ;
#51 = COORDINATED_UNIVERSAL_TIME_OFFSET ( 1, 0, .AHEAD. ) ;
#52 = LOCAL_TIME ( 14, 12, 17.00000000000000000, #51 ) ;
#53 = CARTESIAN_POINT ( 'NONE',  ( -8.000000000000000000, 0.000000000000000000, 5.000000000000000000 ) ) ;
#54 = EDGE_CURVE ( 'NONE', #75, #184, #118, .T. ) ;
#55 = VECTOR ( 'NONE', #105, 1000.000000000000000 ) ;
#56 = PLANE ( 'NONE',  #96 ) ;
#57 = CARTESIAN_POINT ( 'NONE',  ( 0.000000000000000000, 0.000000000000000000, 100.0000000000000000 ) ) ;
#58 = CC_DESIGN_APPROVAL ( #112, ( #159 ) ) ;
#59 = VERTEX_POINT ( 'NONE', #98 ) ;
#60 = CARTESIAN_POINT ( 'NONE',  ( 5.500000000000000000, 6.735557395310442023E-16, 100.0000000000000000 ) ) ;
#61 = CARTESIAN_POINT ( 'NONE',  ( 0.000000000000000000, 0.000000000000000000, 0.000000000000000000 ) ) ;
#62 = CC_DESIGN_PERSON_AND_ORGANIZATION_ASSIGNMENT ( #24, #80, ( #159 ) ) ;
#63 = DIRECTION ( 'NONE',  ( 0.000000000000000000, 0.000000000000000000, 1.000000000000000000 ) ) ;
#64 = APPROVAL_STATUS ( 'not_yet_approved' ) ;
#65 = APPROVAL_ROLE ( '' ) ;
#66 = CYLINDRICAL_SURFACE ( 'NONE', #181, 8.000000000000000000 ) ;
#67 = CIRCLE ( 'NONE', #20, 8.000000000000000000 ) ;
#68 = CYLINDRICAL_SURFACE ( 'NONE', #220, 5.500000000000000000 ) ;
#69 = ADVANCED_FACE ( 'NONE', ( #232 ), #229, .T. ) ;
#70 = ORIENTED_EDGE ( 'NONE', *, *, #206, .T. ) ;
#71 = DIRECTION ( 'NONE',  ( -0.000000000000000000, -0.000000000000000000, -1.000000000000000000 ) ) ;
#72 = FACE_OUTER_BOUND ( 'NONE', #152, .T. ) ;
#73 = PERSON_AND_ORGANIZATION_ROLE ( 'creator' ) ;
#74 = DIRECTION ( 'NONE',  ( 0.000000000000000000, 0.000000000000000000, 1.000000000000000000 ) ) ;
#75 = VERTEX_POINT ( 'NONE', #77 ) ;
#76 = ORIENTED_EDGE ( 'NONE', *, *, #139, .F. ) ;
#77 = CARTESIAN_POINT ( 'NONE',  ( -5.500000000000000000, 0.000000000000000000, 5.000000000000000000 ) ) ;
#78 = UNCERTAINTY_MEASURE_WITH_UNIT (LENGTH_MEASURE( 1.000000000000000082E-05 ), #18, 'distance_accuracy_value', 'NONE');
#79 = LOCAL_TIME ( 14, 12, 17.00000000000000000, #26 ) ;
#80 = PERSON_AND_ORGANIZATION_ROLE ( 'creator' ) ;
#81 = APPROVAL_STATUS ( 'not_yet_approved' ) ;
#82 = EDGE_CURVE ( 'NONE', #59, #2, #67, .T. ) ;
#83 = COORDINATED_UNIVERSAL_TIME_OFFSET ( 1, 0, .AHEAD. ) ;
#84 = ORIENTED_EDGE ( 'NONE', *, *, #231, .T. ) ;
#85 = FACE_OUTER_BOUND ( 'NONE', #198, .T. ) ;
#86 = DIRECTION ( 'NONE',  ( 1.000000000000000000, 0.000000000000000000, 0.000000000000000000 ) ) ;
#87 = ORIENTED_EDGE ( 'NONE', *, *, #201, .F. ) ;
#88 = CARTESIAN_POINT ( 'NONE',  ( -5.500000000000000000, 0.000000000000000000, 100.0000000000000000 ) ) ;
#89 = ORIENTED_EDGE ( 'NONE', *, *, #54, .T. ) ;
#90 = CC_DESIGN_PERSON_AND_ORGANIZATION_ASSIGNMENT ( #1, #101, ( #159 ) ) ;
#91 = CIRCLE ( 'NONE', #47, 8.000000000000000000 ) ;
#92 = ORIENTED_EDGE ( 'NONE', *, *, #104, .F. ) ;
#93 = CARTESIAN_POINT ( 'NONE',  ( 8.000000000000000000, 9.797174393178825657E-16, 5.000000000000000000 ) ) ;
#94 = AXIS2_PLACEMENT_3D ( 'NONE', #111, #41, #126 ) ;
#95 = CARTESIAN_POINT ( 'NONE',  ( 0.000000000000000000, 0.000000000000000000, 0.000000000000000000 ) ) ;
#96 = AXIS2_PLACEMENT_3D ( 'NONE', #40, #208, #185 ) ;
#97 = ORGANIZATION ( 'NEURÈENÝ', 'NEURÈENÝ', '' ) ;
#98 = CARTESIAN_POINT ( 'NONE',  ( 8.000000000000000000, 9.797174393178825657E-16, 0.000000000000000000 ) ) ;
#99 = CALENDAR_DATE ( 2023, 13, 2 ) ;
#100 = ORIENTED_EDGE ( 'NONE', *, *, #82, .T. ) ;
#101 = PERSON_AND_ORGANIZATION_ROLE ( 'design_supplier' ) ;
#102 = CC_DESIGN_DATE_AND_TIME_ASSIGNMENT ( #131, #217, ( #191 ) ) ;
#103 = AXIS2_PLACEMENT_3D ( 'NONE', #215, #45, #250 ) ;
#104 = EDGE_CURVE ( 'NONE', #154, #224, #156, .T. ) ;
#105 = DIRECTION ( 'NONE',  ( -0.000000000000000000, -0.000000000000000000, -1.000000000000000000 ) ) ;
#106 = APPLICATION_CONTEXT ( 'configuration controlled 3d designs of mechanical parts and assemblies' ) ;
#107 = ORIENTED_EDGE ( 'NONE', *, *, #27, .T. ) ;
#108 = PERSON_AND_ORGANIZATION_ROLE ( 'design_owner' ) ;
#109 = EDGE_LOOP ( 'NONE', ( #238, #196 ) ) ;
#110 = LOCAL_TIME ( 14, 12, 17.00000000000000000, #200 ) ;
#111 = CARTESIAN_POINT ( 'NONE',  ( 0.000000000000000000, 0.000000000000000000, 100.0000000000000000 ) ) ;
#112 = APPROVAL ( #64, 'NEURÈENÝ' ) ;
#113 = DATE_AND_TIME ( #30, #52 ) ;
#114 = ORIENTED_EDGE ( 'NONE', *, *, #186, .F. ) ;
#115 = CC_DESIGN_PERSON_AND_ORGANIZATION_ASSIGNMENT ( #42, #108, ( #28 ) ) ;
#116 = CARTESIAN_POINT ( 'NONE',  ( 0.000000000000000000, 0.000000000000000000, 0.000000000000000000 ) ) ;
#117 = CC_DESIGN_SECURITY_CLASSIFICATION ( #252, ( #159 ) ) ;
#118 = CIRCLE ( 'NONE', #46, 5.500000000000000000 ) ;
#119 = EDGE_CURVE ( 'NONE', #23, #178, #169, .T. ) ;
#120 = LINE ( 'NONE', #163, #55 ) ;
#121 = MANIFOLD_SOLID_BREP ( 'Pøidat vysunutím3', #11 ) ;
#122 = AXIS2_PLACEMENT_3D ( 'NONE', #253, #134, #235 ) ;
#123 = CARTESIAN_POINT ( 'NONE',  ( 5.500000000000000000, 6.735557395310442023E-16, 100.0000000000000000 ) ) ;
#124 = ORIENTED_EDGE ( 'NONE', *, *, #206, .F. ) ;
#125 = LOCAL_TIME ( 14, 12, 17.00000000000000000, #19 ) ;
#126 = DIRECTION ( 'NONE',  ( 1.000000000000000000, 0.000000000000000000, -0.000000000000000000 ) ) ;
#127 = ORIENTED_EDGE ( 'NONE', *, *, #27, .F. ) ;
#128 = LINE ( 'NONE', #246, #35 ) ;
#129 = APPROVAL_ROLE ( '' ) ;
#130 = DIRECTION ( 'NONE',  ( 1.000000000000000000, 0.000000000000000000, 0.000000000000000000 ) ) ;
#131 = DATE_AND_TIME ( #137, #79 ) ;
#132 = SECURITY_CLASSIFICATION_LEVEL ( 'unclassified' ) ;
#133 = PERSON_AND_ORGANIZATION ( #8, #97 ) ;
#134 = DIRECTION ( 'NONE',  ( -0.000000000000000000, -0.000000000000000000, -1.000000000000000000 ) ) ;
#135 = ORIENTED_EDGE ( 'NONE', *, *, #201, .T. ) ;
#136 = DIRECTION ( 'NONE',  ( 0.000000000000000000, 0.000000000000000000, 1.000000000000000000 ) ) ;
#137 = CALENDAR_DATE ( 2023, 13, 2 ) ;
#138 = CC_DESIGN_APPROVAL ( #175, ( #252 ) ) ;
#139 = EDGE_CURVE ( 'NONE', #224, #154, #91, .T. ) ;
#140 = CARTESIAN_POINT ( 'NONE',  ( 5.500000000000000000, 6.735557395310442023E-16, 5.000000000000000000 ) ) ;
#141 = CC_DESIGN_PERSON_AND_ORGANIZATION_ASSIGNMENT ( #188, #73, ( #191 ) ) ;
#142 = DIRECTION ( 'NONE',  ( -1.000000000000000000, 0.000000000000000000, 0.000000000000000000 ) ) ;
#143 = ORIENTED_EDGE ( 'NONE', *, *, #139, .T. ) ;
#144 = AXIS2_PLACEMENT_3D ( 'NONE', #150, #63, #130 ) ;
#145 = DIRECTION ( 'NONE',  ( -0.000000000000000000, -0.000000000000000000, -1.000000000000000000 ) ) ;
#146 = APPLICATION_PROTOCOL_DEFINITION ( 'international standard', 'config_control_design', 1994, #153 ) ;
#147 = CARTESIAN_POINT ( 'NONE',  ( -8.000000000000000000, 0.000000000000000000, 0.000000000000000000 ) ) ;
#148 = PLANE ( 'NONE',  #94 ) ;
#149 = APPROVAL_PERSON_ORGANIZATION ( #254, #175, #65 ) ;
#150 = CARTESIAN_POINT ( 'NONE',  ( 0.000000000000000000, 0.000000000000000000, 100.0000000000000000 ) ) ;
#151 = DATE_AND_TIME ( #236, #31 ) ;
#152 = EDGE_LOOP ( 'NONE', ( #9, #70, #84, #87 ) ) ;
#153 = APPLICATION_CONTEXT ( 'configuration controlled 3d designs of mechanical parts and assemblies' ) ;
#154 = VERTEX_POINT ( 'NONE', #53 ) ;
#155 = PLANE ( 'NONE',  #199 ) ;
#156 = CIRCLE ( 'NONE', #103, 8.000000000000000000 ) ;
#157 = CIRCLE ( 'NONE', #36, 5.500000000000000000 ) ;
#158 = CARTESIAN_POINT ( 'NONE',  ( 0.000000000000000000, 0.000000000000000000, 5.000000000000000000 ) ) ;
#159 = PRODUCT_DEFINITION_FORMATION_WITH_SPECIFIED_SOURCE ( 'LIBOVOLNÝ', '', #28, .NOT_KNOWN. ) ;
#160 = EDGE_CURVE ( 'NONE', #178, #23, #157, .T. ) ;
#161 = EDGE_LOOP ( 'NONE', ( #202, #143 ) ) ;
#162 = ORIENTED_EDGE ( 'NONE', *, *, #119, .T. ) ;
#163 = CARTESIAN_POINT ( 'NONE',  ( -5.500000000000000000, 0.000000000000000000, 100.0000000000000000 ) ) ;
#164 = ADVANCED_FACE ( 'NONE', ( #237 ), #66, .T. ) ;
#165 = DIRECTION ( 'NONE',  ( -0.000000000000000000, -0.000000000000000000, -1.000000000000000000 ) ) ;
#166 = EDGE_LOOP ( 'NONE', ( #124, #247, #135, #89 ) ) ;
#167 = DIRECTION ( 'NONE',  ( 1.000000000000000000, 0.000000000000000000, -0.000000000000000000 ) ) ;
#168 = ORIENTED_EDGE ( 'NONE', *, *, #82, .F. ) ;
#169 = CIRCLE ( 'NONE', #144, 5.500000000000000000 ) ;
#170 = FACE_BOUND ( 'NONE', #109, .T. ) ;
#171 = AXIS2_PLACEMENT_3D ( 'NONE', #179, #245, #204 ) ;
#172 = DIRECTION ( 'NONE',  ( 1.000000000000000000, 0.000000000000000000, 0.000000000000000000 ) ) ;
#173 = APPROVAL_STATUS ( 'not_yet_approved' ) ;
#174 = DIRECTION ( 'NONE',  ( 1.000000000000000000, 0.000000000000000000, 0.000000000000000000 ) ) ;
#175 = APPROVAL ( #81, 'NEURÈENÝ' ) ;
#176 = PERSON_AND_ORGANIZATION_ROLE ( 'classification_officer' ) ;
#177 = DIRECTION ( 'NONE',  ( 1.000000000000000000, 0.000000000000000000, 0.000000000000000000 ) ) ;
#178 = VERTEX_POINT ( 'NONE', #88 ) ;
#179 = CARTESIAN_POINT ( 'NONE',  ( 0.000000000000000000, 0.000000000000000000, 5.000000000000000000 ) ) ;
#180 = LINE ( 'NONE', #123, #25 ) ;
#181 = AXIS2_PLACEMENT_3D ( 'NONE', #158, #71, #14 ) ;
#182 = CARTESIAN_POINT ( 'NONE',  ( 0.000000000000000000, 0.000000000000000000, 5.000000000000000000 ) ) ;
#183 = DIRECTION ( 'NONE',  ( 1.000000000000000000, 0.000000000000000000, 0.000000000000000000 ) ) ;
#184 = VERTEX_POINT ( 'NONE', #140 ) ;
#185 = DIRECTION ( 'NONE',  ( 1.000000000000000000, 0.000000000000000000, -0.000000000000000000 ) ) ;
#186 = EDGE_CURVE ( 'NONE', #2, #59, #240, .T. ) ;
#187 =( NAMED_UNIT ( * ) SI_UNIT ( $, .STERADIAN. ) SOLID_ANGLE_UNIT ( ) );
#188 = PERSON_AND_ORGANIZATION ( #8, #97 ) ;
#189 =( GEOMETRIC_REPRESENTATION_CONTEXT ( 3 ) GLOBAL_UNCERTAINTY_ASSIGNED_CONTEXT ( ( #78 ) ) GLOBAL_UNIT_ASSIGNED_CONTEXT ( ( #18, #17, #187 ) ) REPRESENTATION_CONTEXT ( 'NONE', 'WORKASPACE' ) );
#190 = DIRECTION ( 'NONE',  ( 0.000000000000000000, 0.000000000000000000, 1.000000000000000000 ) ) ;
#191 = PRODUCT_DEFINITION ( 'NEZNÁMÝ', '', #159, #218 ) ;
#192 = DATE_AND_TIME ( #233, #110 ) ;
#193 = DIRECTION ( 'NONE',  ( 0.000000000000000000, 0.000000000000000000, 1.000000000000000000 ) ) ;
#194 = DATE_TIME_ROLE ( 'classification_date' ) ;
#195 = ADVANCED_FACE ( 'NONE', ( #72 ), #68, .T. ) ;
#196 = ORIENTED_EDGE ( 'NONE', *, *, #231, .F. ) ;
#197 = CARTESIAN_POINT ( 'NONE',  ( 0.000000000000000000, 0.000000000000000000, 100.0000000000000000 ) ) ;
#198 = EDGE_LOOP ( 'NONE', ( #48, #162 ) ) ;
#199 = AXIS2_PLACEMENT_3D ( 'NONE', #95, #203, #167 ) ;
#200 = COORDINATED_UNIVERSAL_TIME_OFFSET ( 1, 0, .AHEAD. ) ;
#201 = EDGE_CURVE ( 'NONE', #178, #75, #120, .T. ) ;
#202 = ORIENTED_EDGE ( 'NONE', *, *, #104, .T. ) ;
#203 = DIRECTION ( 'NONE',  ( 0.000000000000000000, 0.000000000000000000, 1.000000000000000000 ) ) ;
#204 = DIRECTION ( 'NONE',  ( 1.000000000000000000, 0.000000000000000000, 0.000000000000000000 ) ) ;
#205 = VECTOR ( 'NONE', #145, 1000.000000000000000 ) ;
#206 = EDGE_CURVE ( 'NONE', #23, #184, #180, .T. ) ;
#207 = FACE_OUTER_BOUND ( 'NONE', #161, .T. ) ;
#208 = DIRECTION ( 'NONE',  ( 0.000000000000000000, 0.000000000000000000, 1.000000000000000000 ) ) ;
#209 = ADVANCED_FACE ( 'NONE', ( #242 ), #155, .F. ) ;
#210 = APPLICATION_PROTOCOL_DEFINITION ( 'international standard', 'config_control_design', 1994, #106 ) ;
#211 = SHAPE_DEFINITION_REPRESENTATION ( #228, #243 ) ;
#212 = EDGE_LOOP ( 'NONE', ( #114, #168 ) ) ;
#213 = CARTESIAN_POINT ( 'NONE',  ( 0.000000000000000000, 0.000000000000000000, 0.000000000000000000 ) ) ;
#214 = APPROVAL_DATE_TIME ( #113, #175 ) ;
#215 = CARTESIAN_POINT ( 'NONE',  ( 0.000000000000000000, 0.000000000000000000, 5.000000000000000000 ) ) ;
#216 = ORIENTED_EDGE ( 'NONE', *, *, #186, .T. ) ;
#217 = DATE_TIME_ROLE ( 'creation_date' ) ;
#218 = DESIGN_CONTEXT ( 'detailed design', #106, 'design' ) ;
#219 = PRODUCT_RELATED_PRODUCT_CATEGORY ( 'detail', '', ( #28 ) ) ;
#220 = AXIS2_PLACEMENT_3D ( 'NONE', #57, #225, #32 ) ;
#221 = CARTESIAN_POINT ( 'NONE',  ( 0.000000000000000000, 0.000000000000000000, 5.000000000000000000 ) ) ;
#222 = APPROVAL_PERSON_ORGANIZATION ( #44, #112, #251 ) ;
#223 = LINE ( 'NONE', #38, #205 ) ;
#224 = VERTEX_POINT ( 'NONE', #93 ) ;
#225 = DIRECTION ( 'NONE',  ( -0.000000000000000000, -0.000000000000000000, -1.000000000000000000 ) ) ;
#226 = MECHANICAL_CONTEXT ( 'NONE', #153, 'mechanical' ) ;
#227 = DIRECTION ( 'NONE',  ( -0.000000000000000000, -0.000000000000000000, -1.000000000000000000 ) ) ;
#228 = PRODUCT_DEFINITION_SHAPE ( 'NONE', 'NONE',  #191 ) ;
#229 = CYLINDRICAL_SURFACE ( 'NONE', #122, 5.500000000000000000 ) ;
#230 = DATE_AND_TIME ( #99, #125 ) ;
#231 = EDGE_CURVE ( 'NONE', #184, #75, #39, .T. ) ;
#232 = FACE_OUTER_BOUND ( 'NONE', #166, .T. ) ;
#233 = CALENDAR_DATE ( 2023, 13, 2 ) ;
#234 = CC_DESIGN_APPROVAL ( #5, ( #191 ) ) ;
#235 = DIRECTION ( 'NONE',  ( -1.000000000000000000, 0.000000000000000000, 0.000000000000000000 ) ) ;
#236 = CALENDAR_DATE ( 2023, 13, 2 ) ;
#237 = FACE_OUTER_BOUND ( 'NONE', #34, .T. ) ;
#238 = ORIENTED_EDGE ( 'NONE', *, *, #54, .F. ) ;
#239 = ADVANCED_FACE ( 'NONE', ( #37 ), #6, .T. ) ;
#240 = CIRCLE ( 'NONE', #248, 8.000000000000000000 ) ;
#241 = EDGE_LOOP ( 'NONE', ( #76, #50, #100, #127 ) ) ;
#242 = FACE_OUTER_BOUND ( 'NONE', #212, .T. ) ;
#243 = ADVANCED_BREP_SHAPE_REPRESENTATION ( '43b0', ( #121, #12 ), #189 ) ;
#244 = EDGE_CURVE ( 'NONE', #224, #59, #223, .T. ) ;
#245 = DIRECTION ( 'NONE',  ( 0.000000000000000000, 0.000000000000000000, 1.000000000000000000 ) ) ;
#246 = CARTESIAN_POINT ( 'NONE',  ( -8.000000000000000000, 0.000000000000000000, 5.000000000000000000 ) ) ;
#247 = ORIENTED_EDGE ( 'NONE', *, *, #160, .F. ) ;
#248 = AXIS2_PLACEMENT_3D ( 'NONE', #116, #7, #86 ) ;
#249 = PERSON_AND_ORGANIZATION ( #8, #97 ) ;
#250 = DIRECTION ( 'NONE',  ( 1.000000000000000000, 0.000000000000000000, 0.000000000000000000 ) ) ;
#251 = APPROVAL_ROLE ( '' ) ;
#252 = SECURITY_CLASSIFICATION ( '', '', #132 ) ;
#253 = CARTESIAN_POINT ( 'NONE',  ( 0.000000000000000000, 0.000000000000000000, 100.0000000000000000 ) ) ;
#254 = PERSON_AND_ORGANIZATION ( #8, #97 ) ;
#255 = ADVANCED_FACE ( 'NONE', ( #85 ), #148, .T. ) ;
ENDSEC;
END-ISO-10303-21;
