ISO-10303-21;
HEADER;
FILE_DESCRIPTION (( 'STEP AP203' ),
    '1' );
FILE_NAME ('1aec.STEP',
    '2023-02-13T16:26:44',
    ( '' ),
    ( '' ),
    'SwSTEP 2.0',
    'SolidWorks 2019',
    '' );
FILE_SCHEMA (( 'CONFIG_CONTROL_DESIGN' ));
ENDSEC;

DATA;
#1 = APPLICATION_PROTOCOL_DEFINITION ( 'international standard', 'config_control_design', 1994, #131 ) ;
#2 = ADVANCED_FACE ( 'NONE', ( #6 ), #192, .T. ) ;
#3 = FACE_BOUND ( 'NONE', #4, .T. ) ;
#4 = EDGE_LOOP ( 'NONE', ( #91, #8 ) ) ;
#5 = CARTESIAN_POINT ( 'NONE',  ( 0.000000000000000000, 0.000000000000000000, 3.000000000000000000 ) ) ;
#6 = FACE_OUTER_BOUND ( 'NONE', #113, .T. ) ;
#7 = CC_DESIGN_DATE_AND_TIME_ASSIGNMENT ( #171, #57, ( #66 ) ) ;
#8 = ORIENTED_EDGE ( 'NONE', *, *, #195, .F. ) ;
#9 = PERSON_AND_ORGANIZATION ( #65, #27 ) ;
#10 = LINE ( 'NONE', #170, #204 ) ;
#11 = APPROVAL_ROLE ( '' ) ;
#12 = CARTESIAN_POINT ( 'NONE',  ( 0.000000000000000000, 0.000000000000000000, 0.000000000000000000 ) ) ;
#13 =( NAMED_UNIT ( * ) PLANE_ANGLE_UNIT ( ) SI_UNIT ( $, .RADIAN. ) );
#14 = DIRECTION ( 'NONE',  ( -0.000000000000000000, -0.000000000000000000, -1.000000000000000000 ) ) ;
#15 = DATE_AND_TIME ( #24, #126 ) ;
#16 = PRODUCT_RELATED_PRODUCT_CATEGORY ( 'detail', '', ( #82 ) ) ;
#17 = DIRECTION ( 'NONE',  ( 0.000000000000000000, 0.000000000000000000, 1.000000000000000000 ) ) ;
#18 = DIRECTION ( 'NONE',  ( -0.000000000000000000, -0.000000000000000000, -1.000000000000000000 ) ) ;
#19 = CYLINDRICAL_SURFACE ( 'NONE', #109, 1.500000000000000222 ) ;
#20 = APPROVAL ( #137, 'NEURÈENÝ' ) ;
#21 = ORIENTED_EDGE ( 'NONE', *, *, #195, .T. ) ;
#22 = DATE_AND_TIME ( #49, #199 ) ;
#23 = ORIENTED_EDGE ( 'NONE', *, *, #96, .F. ) ;
#24 = CALENDAR_DATE ( 2023, 13, 2 ) ;
#25 = VECTOR ( 'NONE', #181, 1000.000000000000000 ) ;
#26 = CIRCLE ( 'NONE', #213, 1.500000000000000222 ) ;
#27 = ORGANIZATION ( 'NEURÈENÝ', 'NEURÈENÝ', '' ) ;
#28 = PERSON_AND_ORGANIZATION_ROLE ( 'design_supplier' ) ;
#29 = DIRECTION ( 'NONE',  ( 1.000000000000000000, 0.000000000000000000, 0.000000000000000000 ) ) ;
#30 = CC_DESIGN_PERSON_AND_ORGANIZATION_ASSIGNMENT ( #189, #165, ( #82 ) ) ;
#31 = CIRCLE ( 'NONE', #68, 1.500000000000000222 ) ;
#32 = DIRECTION ( 'NONE',  ( -1.000000000000000000, 0.000000000000000000, 0.000000000000000000 ) ) ;
#33 = CC_DESIGN_DATE_AND_TIME_ASSIGNMENT ( #197, #194, ( #123 ) ) ;
#34 = CARTESIAN_POINT ( 'NONE',  ( -3.000000000000000444, 0.000000000000000000, 0.000000000000000000 ) ) ;
#35 = CARTESIAN_POINT ( 'NONE',  ( 0.000000000000000000, 0.000000000000000000, 3.000000000000000000 ) ) ;
#36 = CIRCLE ( 'NONE', #236, 1.500000000000000222 ) ;
#37 = EDGE_CURVE ( 'NONE', #130, #135, #10, .T. ) ;
#38 = FACE_OUTER_BOUND ( 'NONE', #69, .T. ) ;
#39 = DIRECTION ( 'NONE',  ( 0.000000000000000000, 0.000000000000000000, 1.000000000000000000 ) ) ;
#40 = DIRECTION ( 'NONE',  ( 1.000000000000000000, 0.000000000000000000, -0.000000000000000000 ) ) ;
#41 = EDGE_CURVE ( 'NONE', #115, #130, #31, .T. ) ;
#42 = CARTESIAN_POINT ( 'NONE',  ( 0.000000000000000000, 0.000000000000000000, 0.000000000000000000 ) ) ;
#43 = DIRECTION ( 'NONE',  ( 1.000000000000000000, 0.000000000000000000, 0.000000000000000000 ) ) ;
#44 = DIRECTION ( 'NONE',  ( 1.000000000000000000, 0.000000000000000000, -0.000000000000000000 ) ) ;
#45 = UNCERTAINTY_MEASURE_WITH_UNIT (LENGTH_MEASURE( 1.000000000000000082E-05 ), #58, 'distance_accuracy_value', 'NONE');
#46 = PLANE ( 'NONE',  #196 ) ;
#47 = ADVANCED_FACE ( 'NONE', ( #186 ), #46, .F. ) ;
#48 = ORIENTED_EDGE ( 'NONE', *, *, #107, .F. ) ;
#49 = CALENDAR_DATE ( 2023, 13, 2 ) ;
#50 = COORDINATED_UNIVERSAL_TIME_OFFSET ( 1, 0, .AHEAD. ) ;
#51 = AXIS2_PLACEMENT_3D ( 'NONE', #144, #222, #74 ) ;
#52 = ORIENTED_EDGE ( 'NONE', *, *, #164, .F. ) ;
#53 = CIRCLE ( 'NONE', #180, 3.000000000000000444 ) ;
#54 = DIRECTION ( 'NONE',  ( 0.000000000000000000, 0.000000000000000000, 1.000000000000000000 ) ) ;
#55 = CALENDAR_DATE ( 2023, 13, 2 ) ;
#56 = DIRECTION ( 'NONE',  ( -0.000000000000000000, -0.000000000000000000, -1.000000000000000000 ) ) ;
#57 = DATE_TIME_ROLE ( 'classification_date' ) ;
#58 =( LENGTH_UNIT ( ) NAMED_UNIT ( * ) SI_UNIT ( .MILLI., .METRE. ) );
#59 = DIRECTION ( 'NONE',  ( 1.000000000000000000, 0.000000000000000000, 0.000000000000000000 ) ) ;
#60 = AXIS2_PLACEMENT_3D ( 'NONE', #210, #251, #253 ) ;
#61 = FACE_OUTER_BOUND ( 'NONE', #207, .T. ) ;
#62 = LINE ( 'NONE', #178, #242 ) ;
#63 = CARTESIAN_POINT ( 'NONE',  ( 0.000000000000000000, 0.000000000000000000, 3.000000000000000000 ) ) ;
#64 = APPROVAL_PERSON_ORGANIZATION ( #159, #67, #149 ) ;
#65 = PERSON ( 'NEURÈENÝ', 'NEURÈENÝ', 'NEURÈENÝ', ('NEURÈENÝ'), ('NEURÈENÝ'), ('NEURÈENÝ') ) ;
#66 = SECURITY_CLASSIFICATION ( '', '', #118 ) ;
#67 = APPROVAL ( #243, 'NEURÈENÝ' ) ;
#68 = AXIS2_PLACEMENT_3D ( 'NONE', #89, #54, #29 ) ;
#69 = EDGE_LOOP ( 'NONE', ( #168, #71 ) ) ;
#70 = VERTEX_POINT ( 'NONE', #233 ) ;
#71 = ORIENTED_EDGE ( 'NONE', *, *, #114, .T. ) ;
#72 = COORDINATED_UNIVERSAL_TIME_OFFSET ( 1, 0, .AHEAD. ) ;
#73 = CC_DESIGN_PERSON_AND_ORGANIZATION_ASSIGNMENT ( #98, #154, ( #66 ) ) ;
#74 = DIRECTION ( 'NONE',  ( -1.000000000000000000, 0.000000000000000000, 0.000000000000000000 ) ) ;
#75 =( GEOMETRIC_REPRESENTATION_CONTEXT ( 3 ) GLOBAL_UNCERTAINTY_ASSIGNED_CONTEXT ( ( #45 ) ) GLOBAL_UNIT_ASSIGNED_CONTEXT ( ( #58, #13, #138 ) ) REPRESENTATION_CONTEXT ( 'NONE', 'WORKASPACE' ) );
#76 = CARTESIAN_POINT ( 'NONE',  ( 0.000000000000000000, 0.000000000000000000, 315.0000000000000000 ) ) ;
#77 = FACE_OUTER_BOUND ( 'NONE', #244, .T. ) ;
#78 = EDGE_CURVE ( 'NONE', #224, #97, #106, .T. ) ;
#79 = CARTESIAN_POINT ( 'NONE',  ( 0.000000000000000000, 0.000000000000000000, 3.000000000000000000 ) ) ;
#80 = DATE_AND_TIME ( #134, #101 ) ;
#81 = CARTESIAN_POINT ( 'NONE',  ( 3.000000000000000444, 3.673940397442060361E-16, 3.000000000000000000 ) ) ;
#82 = PRODUCT ( '1aec', '1aec', '', ( #163 ) ) ;
#83 = AXIS2_PLACEMENT_3D ( 'NONE', #141, #216, #40 ) ;
#84 = DIRECTION ( 'NONE',  ( -1.000000000000000000, 0.000000000000000000, 0.000000000000000000 ) ) ;
#85 = ADVANCED_FACE ( 'NONE', ( #77 ), #155, .T. ) ;
#86 = CARTESIAN_POINT ( 'NONE',  ( 3.000000000000000444, 3.673940397442060361E-16, 0.000000000000000000 ) ) ;
#87 = CC_DESIGN_APPROVAL ( #102, ( #66 ) ) ;
#88 = DIRECTION ( 'NONE',  ( 1.000000000000000000, 0.000000000000000000, 0.000000000000000000 ) ) ;
#89 = CARTESIAN_POINT ( 'NONE',  ( 0.000000000000000000, 0.000000000000000000, 315.0000000000000000 ) ) ;
#90 = CARTESIAN_POINT ( 'NONE',  ( 1.500000000000000222, 1.836970198721030181E-16, 3.000000000000000000 ) ) ;
#91 = ORIENTED_EDGE ( 'NONE', *, *, #119, .F. ) ;
#92 = ORIENTED_EDGE ( 'NONE', *, *, #41, .T. ) ;
#93 = PERSON_AND_ORGANIZATION_ROLE ( 'creator' ) ;
#94 = ORIENTED_EDGE ( 'NONE', *, *, #147, .T. ) ;
#95 = APPROVAL_DATE_TIME ( #15, #20 ) ;
#96 = EDGE_CURVE ( 'NONE', #70, #224, #230, .T. ) ;
#97 = VERTEX_POINT ( 'NONE', #34 ) ;
#98 = PERSON_AND_ORGANIZATION ( #65, #27 ) ;
#99 = AXIS2_PLACEMENT_3D ( 'NONE', #79, #56, #32 ) ;
#100 = DIRECTION ( 'NONE',  ( 0.000000000000000000, 0.000000000000000000, 1.000000000000000000 ) ) ;
#101 = LOCAL_TIME ( 17, 26, 44.00000000000000000, #72 ) ;
#102 = APPROVAL ( #252, 'NEURÈENÝ' ) ;
#103 = APPROVAL_DATE_TIME ( #80, #102 ) ;
#104 = CARTESIAN_POINT ( 'NONE',  ( 0.000000000000000000, 0.000000000000000000, 3.000000000000000000 ) ) ;
#105 = APPLICATION_PROTOCOL_DEFINITION ( 'international standard', 'config_control_design', 1994, #128 ) ;
#106 = CIRCLE ( 'NONE', #60, 3.000000000000000444 ) ;
#107 = EDGE_CURVE ( 'NONE', #146, #97, #62, .T. ) ;
#108 = CARTESIAN_POINT ( 'NONE',  ( -3.000000000000000444, 0.000000000000000000, 3.000000000000000000 ) ) ;
#109 = AXIS2_PLACEMENT_3D ( 'NONE', #140, #255, #84 ) ;
#110 = APPROVAL_PERSON_ORGANIZATION ( #250, #20, #11 ) ;
#111 = CARTESIAN_POINT ( 'NONE',  ( 0.000000000000000000, 0.000000000000000000, 3.000000000000000000 ) ) ;
#112 = ORIENTED_EDGE ( 'NONE', *, *, #78, .T. ) ;
#113 = EDGE_LOOP ( 'NONE', ( #190, #94, #21, #162 ) ) ;
#114 = EDGE_CURVE ( 'NONE', #70, #146, #136, .T. ) ;
#115 = VERTEX_POINT ( 'NONE', #235 ) ;
#116 = LOCAL_TIME ( 17, 26, 44.00000000000000000, #179 ) ;
#117 = ORIENTED_EDGE ( 'NONE', *, *, #78, .F. ) ;
#118 = SECURITY_CLASSIFICATION_LEVEL ( 'unclassified' ) ;
#119 = EDGE_CURVE ( 'NONE', #135, #148, #36, .T. ) ;
#120 = COORDINATED_UNIVERSAL_TIME_OFFSET ( 1, 0, .AHEAD. ) ;
#121 = ADVANCED_BREP_SHAPE_REPRESENTATION ( '1aec', ( #241, #225 ), #75 ) ;
#122 = ADVANCED_FACE ( 'NONE', ( #3, #38 ), #161, .T. ) ;
#123 = PRODUCT_DEFINITION ( 'NEZNÁMÝ', '', #209, #182 ) ;
#124 = AXIS2_PLACEMENT_3D ( 'NONE', #5, #158, #88 ) ;
#125 = FACE_OUTER_BOUND ( 'NONE', #193, .T. ) ;
#126 = LOCAL_TIME ( 17, 26, 44.00000000000000000, #120 ) ;
#127 = DIRECTION ( 'NONE',  ( 0.000000000000000000, 0.000000000000000000, 1.000000000000000000 ) ) ;
#128 = APPLICATION_CONTEXT ( 'configuration controlled 3d designs of mechanical parts and assemblies' ) ;
#129 = FACE_OUTER_BOUND ( 'NONE', #201, .T. ) ;
#130 = VERTEX_POINT ( 'NONE', #187 ) ;
#131 = APPLICATION_CONTEXT ( 'configuration controlled 3d designs of mechanical parts and assemblies' ) ;
#132 = EDGE_CURVE ( 'NONE', #146, #70, #229, .T. ) ;
#133 = ORIENTED_EDGE ( 'NONE', *, *, #147, .F. ) ;
#134 = CALENDAR_DATE ( 2023, 13, 2 ) ;
#135 = VERTEX_POINT ( 'NONE', #214 ) ;
#136 = CIRCLE ( 'NONE', #248, 3.000000000000000444 ) ;
#137 = APPROVAL_STATUS ( 'not_yet_approved' ) ;
#138 =( NAMED_UNIT ( * ) SI_UNIT ( $, .STERADIAN. ) SOLID_ANGLE_UNIT ( ) );
#139 = CC_DESIGN_APPROVAL ( #20, ( #209 ) ) ;
#140 = CARTESIAN_POINT ( 'NONE',  ( 0.000000000000000000, 0.000000000000000000, 315.0000000000000000 ) ) ;
#141 = CARTESIAN_POINT ( 'NONE',  ( 0.000000000000000000, 0.000000000000000000, 315.0000000000000000 ) ) ;
#142 = CALENDAR_DATE ( 2023, 13, 2 ) ;
#143 = LINE ( 'NONE', #217, #25 ) ;
#144 = CARTESIAN_POINT ( 'NONE',  ( 0.000000000000000000, 0.000000000000000000, 315.0000000000000000 ) ) ;
#145 = LOCAL_TIME ( 17, 26, 44.00000000000000000, #50 ) ;
#146 = VERTEX_POINT ( 'NONE', #108 ) ;
#147 = EDGE_CURVE ( 'NONE', #115, #148, #143, .T. ) ;
#148 = VERTEX_POINT ( 'NONE', #90 ) ;
#149 = APPROVAL_ROLE ( '' ) ;
#150 = ORIENTED_EDGE ( 'NONE', *, *, #37, .T. ) ;
#151 = VECTOR ( 'NONE', #14, 1000.000000000000000 ) ;
#152 = ORIENTED_EDGE ( 'NONE', *, *, #107, .T. ) ;
#153 = AXIS2_PLACEMENT_3D ( 'NONE', #35, #18, #183 ) ;
#154 = PERSON_AND_ORGANIZATION_ROLE ( 'classification_officer' ) ;
#155 = CYLINDRICAL_SURFACE ( 'NONE', #99, 3.000000000000000444 ) ;
#156 = DIRECTION ( 'NONE',  ( 1.000000000000000000, 0.000000000000000000, -0.000000000000000000 ) ) ;
#157 = CARTESIAN_POINT ( 'NONE',  ( 0.000000000000000000, 0.000000000000000000, 3.000000000000000000 ) ) ;
#158 = DIRECTION ( 'NONE',  ( 0.000000000000000000, 0.000000000000000000, 1.000000000000000000 ) ) ;
#159 = PERSON_AND_ORGANIZATION ( #65, #27 ) ;
#160 = CC_DESIGN_PERSON_AND_ORGANIZATION_ASSIGNMENT ( #9, #93, ( #123 ) ) ;
#161 = PLANE ( 'NONE',  #166 ) ;
#162 = ORIENTED_EDGE ( 'NONE', *, *, #37, .F. ) ;
#163 = MECHANICAL_CONTEXT ( 'NONE', #128, 'mechanical' ) ;
#164 = EDGE_CURVE ( 'NONE', #97, #224, #53, .T. ) ;
#165 = PERSON_AND_ORGANIZATION_ROLE ( 'design_owner' ) ;
#166 = AXIS2_PLACEMENT_3D ( 'NONE', #111, #218, #44 ) ;
#167 = CIRCLE ( 'NONE', #249, 1.500000000000000222 ) ;
#168 = ORIENTED_EDGE ( 'NONE', *, *, #132, .T. ) ;
#169 = CARTESIAN_POINT ( 'NONE',  ( 0.000000000000000000, 0.000000000000000000, 0.000000000000000000 ) ) ;
#170 = CARTESIAN_POINT ( 'NONE',  ( -1.500000000000000222, 0.000000000000000000, 315.0000000000000000 ) ) ;
#171 = DATE_AND_TIME ( #55, #116 ) ;
#172 = ORIENTED_EDGE ( 'NONE', *, *, #206, .F. ) ;
#173 = PERSON_AND_ORGANIZATION_ROLE ( 'creator' ) ;
#174 = ADVANCED_FACE ( 'NONE', ( #129 ), #19, .T. ) ;
#175 = DIRECTION ( 'NONE',  ( 0.000000000000000000, 0.000000000000000000, 1.000000000000000000 ) ) ;
#176 = DIRECTION ( 'NONE',  ( 1.000000000000000000, 0.000000000000000000, 0.000000000000000000 ) ) ;
#177 = DIRECTION ( 'NONE',  ( 0.000000000000000000, 0.000000000000000000, 1.000000000000000000 ) ) ;
#178 = CARTESIAN_POINT ( 'NONE',  ( -3.000000000000000444, 0.000000000000000000, 3.000000000000000000 ) ) ;
#179 = COORDINATED_UNIVERSAL_TIME_OFFSET ( 1, 0, .AHEAD. ) ;
#180 = AXIS2_PLACEMENT_3D ( 'NONE', #42, #127, #198 ) ;
#181 = DIRECTION ( 'NONE',  ( -0.000000000000000000, -0.000000000000000000, -1.000000000000000000 ) ) ;
#182 = DESIGN_CONTEXT ( 'detailed design', #131, 'design' ) ;
#183 = DIRECTION ( 'NONE',  ( -1.000000000000000000, 0.000000000000000000, 0.000000000000000000 ) ) ;
#184 = DIRECTION ( 'NONE',  ( 1.000000000000000000, 0.000000000000000000, 0.000000000000000000 ) ) ;
#185 = CC_DESIGN_SECURITY_CLASSIFICATION ( #66, ( #209 ) ) ;
#186 = FACE_OUTER_BOUND ( 'NONE', #188, .T. ) ;
#187 = CARTESIAN_POINT ( 'NONE',  ( -1.500000000000000222, 0.000000000000000000, 315.0000000000000000 ) ) ;
#188 = EDGE_LOOP ( 'NONE', ( #52, #117 ) ) ;
#189 = PERSON_AND_ORGANIZATION ( #65, #27 ) ;
#190 = ORIENTED_EDGE ( 'NONE', *, *, #41, .F. ) ;
#191 = APPROVAL_DATE_TIME ( #22, #67 ) ;
#192 = CYLINDRICAL_SURFACE ( 'NONE', #51, 1.500000000000000222 ) ;
#193 = EDGE_LOOP ( 'NONE', ( #23, #247, #152, #200 ) ) ;
#194 = DATE_TIME_ROLE ( 'creation_date' ) ;
#195 = EDGE_CURVE ( 'NONE', #148, #135, #26, .T. ) ;
#196 = AXIS2_PLACEMENT_3D ( 'NONE', #12, #177, #156 ) ;
#197 = DATE_AND_TIME ( #142, #145 ) ;
#198 = DIRECTION ( 'NONE',  ( 1.000000000000000000, 0.000000000000000000, 0.000000000000000000 ) ) ;
#199 = LOCAL_TIME ( 17, 26, 44.00000000000000000, #221 ) ;
#200 = ORIENTED_EDGE ( 'NONE', *, *, #164, .T. ) ;
#201 = EDGE_LOOP ( 'NONE', ( #133, #172, #150, #220 ) ) ;
#202 = ORIENTED_EDGE ( 'NONE', *, *, #96, .T. ) ;
#203 = PERSON_AND_ORGANIZATION ( #65, #27 ) ;
#204 = VECTOR ( 'NONE', #226, 1000.000000000000000 ) ;
#205 = APPROVAL_PERSON_ORGANIZATION ( #227, #102, #246 ) ;
#206 = EDGE_CURVE ( 'NONE', #130, #115, #167, .T. ) ;
#207 = EDGE_LOOP ( 'NONE', ( #245, #92 ) ) ;
#208 = ORIENTED_EDGE ( 'NONE', *, *, #114, .F. ) ;
#209 = PRODUCT_DEFINITION_FORMATION_WITH_SPECIFIED_SOURCE ( 'LIBOVOLNÝ', '', #82, .NOT_KNOWN. ) ;
#210 = CARTESIAN_POINT ( 'NONE',  ( 0.000000000000000000, 0.000000000000000000, 0.000000000000000000 ) ) ;
#211 = DIRECTION ( 'NONE',  ( -0.000000000000000000, -0.000000000000000000, -1.000000000000000000 ) ) ;
#212 = CC_DESIGN_PERSON_AND_ORGANIZATION_ASSIGNMENT ( #228, #173, ( #209 ) ) ;
#213 = AXIS2_PLACEMENT_3D ( 'NONE', #104, #17, #238 ) ;
#214 = CARTESIAN_POINT ( 'NONE',  ( -1.500000000000000222, 0.000000000000000000, 3.000000000000000000 ) ) ;
#215 = PRODUCT_DEFINITION_SHAPE ( 'NONE', 'NONE',  #123 ) ;
#216 = DIRECTION ( 'NONE',  ( 0.000000000000000000, 0.000000000000000000, 1.000000000000000000 ) ) ;
#217 = CARTESIAN_POINT ( 'NONE',  ( 1.500000000000000222, 1.836970198721030181E-16, 315.0000000000000000 ) ) ;
#218 = DIRECTION ( 'NONE',  ( 0.000000000000000000, 0.000000000000000000, 1.000000000000000000 ) ) ;
#219 = CLOSED_SHELL ( 'NONE', ( #2, #85, #223, #122, #47, #174, #254 ) ) ;
#220 = ORIENTED_EDGE ( 'NONE', *, *, #119, .T. ) ;
#221 = COORDINATED_UNIVERSAL_TIME_OFFSET ( 1, 0, .AHEAD. ) ;
#222 = DIRECTION ( 'NONE',  ( -0.000000000000000000, -0.000000000000000000, -1.000000000000000000 ) ) ;
#223 = ADVANCED_FACE ( 'NONE', ( #125 ), #232, .T. ) ;
#224 = VERTEX_POINT ( 'NONE', #86 ) ;
#225 = AXIS2_PLACEMENT_3D ( 'NONE', #169, #240, #43 ) ;
#226 = DIRECTION ( 'NONE',  ( -0.000000000000000000, -0.000000000000000000, -1.000000000000000000 ) ) ;
#227 = PERSON_AND_ORGANIZATION ( #65, #27 ) ;
#228 = PERSON_AND_ORGANIZATION ( #65, #27 ) ;
#229 = CIRCLE ( 'NONE', #124, 3.000000000000000444 ) ;
#230 = LINE ( 'NONE', #81, #151 ) ;
#231 = SHAPE_DEFINITION_REPRESENTATION ( #215, #121 ) ;
#232 = CYLINDRICAL_SURFACE ( 'NONE', #153, 3.000000000000000444 ) ;
#233 = CARTESIAN_POINT ( 'NONE',  ( 3.000000000000000444, 3.673940397442060361E-16, 3.000000000000000000 ) ) ;
#234 = CC_DESIGN_PERSON_AND_ORGANIZATION_ASSIGNMENT ( #203, #28, ( #209 ) ) ;
#235 = CARTESIAN_POINT ( 'NONE',  ( 1.500000000000000222, 1.836970198721030181E-16, 315.0000000000000000 ) ) ;
#236 = AXIS2_PLACEMENT_3D ( 'NONE', #63, #175, #184 ) ;
#237 = CC_DESIGN_APPROVAL ( #67, ( #123 ) ) ;
#238 = DIRECTION ( 'NONE',  ( 1.000000000000000000, 0.000000000000000000, 0.000000000000000000 ) ) ;
#239 = PLANE ( 'NONE',  #83 ) ;
#240 = DIRECTION ( 'NONE',  ( 0.000000000000000000, 0.000000000000000000, 1.000000000000000000 ) ) ;
#241 = MANIFOLD_SOLID_BREP ( 'Pøidat vysunutím3', #219 ) ;
#242 = VECTOR ( 'NONE', #211, 1000.000000000000000 ) ;
#243 = APPROVAL_STATUS ( 'not_yet_approved' ) ;
#244 = EDGE_LOOP ( 'NONE', ( #208, #202, #112, #48 ) ) ;
#245 = ORIENTED_EDGE ( 'NONE', *, *, #206, .T. ) ;
#246 = APPROVAL_ROLE ( '' ) ;
#247 = ORIENTED_EDGE ( 'NONE', *, *, #132, .F. ) ;
#248 = AXIS2_PLACEMENT_3D ( 'NONE', #157, #100, #59 ) ;
#249 = AXIS2_PLACEMENT_3D ( 'NONE', #76, #39, #176 ) ;
#250 = PERSON_AND_ORGANIZATION ( #65, #27 ) ;
#251 = DIRECTION ( 'NONE',  ( 0.000000000000000000, 0.000000000000000000, 1.000000000000000000 ) ) ;
#252 = APPROVAL_STATUS ( 'not_yet_approved' ) ;
#253 = DIRECTION ( 'NONE',  ( 1.000000000000000000, 0.000000000000000000, 0.000000000000000000 ) ) ;
#254 = ADVANCED_FACE ( 'NONE', ( #61 ), #239, .T. ) ;
#255 = DIRECTION ( 'NONE',  ( -0.000000000000000000, -0.000000000000000000, -1.000000000000000000 ) ) ;
ENDSEC;
END-ISO-10303-21;
