ISO-10303-21;
HEADER;
FILE_DESCRIPTION (( 'STEP AP203' ),
    '1' );
FILE_NAME ('97e3.STEP',
    '2023-02-13T16:06:37',
    ( '' ),
    ( '' ),
    'SwSTEP 2.0',
    'SolidWorks 2019',
    '' );
FILE_SCHEMA (( 'CONFIG_CONTROL_DESIGN' ));
ENDSEC;

DATA;
#1 = DIRECTION ( 'NONE',  ( 0.000000000000000000, 0.000000000000000000, 1.000000000000000000 ) ) ;
#2 = DIRECTION ( 'NONE',  ( 1.000000000000000000, 0.000000000000000000, 0.000000000000000000 ) ) ;
#3 = CARTESIAN_POINT ( 'NONE',  ( 0.000000000000000000, 0.000000000000000000, 3.000000000000000000 ) ) ;
#4 = LINE ( 'NONE', #48, #174 ) ;
#5 = PLANE ( 'NONE',  #40 ) ;
#6 = EDGE_CURVE ( 'NONE', #34, #22, #225, .T. ) ;
#7 = AXIS2_PLACEMENT_3D ( 'NONE', #244, #148, #163 ) ;
#8 = CIRCLE ( 'NONE', #241, 4.000000000000000000 ) ;
#9 = ORIENTED_EDGE ( 'NONE', *, *, #41, .F. ) ;
#10 = PERSON_AND_ORGANIZATION_ROLE ( 'design_owner' ) ;
#11 = SECURITY_CLASSIFICATION ( '', '', #123 ) ;
#12 = FACE_OUTER_BOUND ( 'NONE', #125, .T. ) ;
#13 = CC_DESIGN_PERSON_AND_ORGANIZATION_ASSIGNMENT ( #249, #43, ( #223 ) ) ;
#14 = CARTESIAN_POINT ( 'NONE',  ( 0.000000000000000000, 0.000000000000000000, 200.0000000000000000 ) ) ;
#15 = PRODUCT_RELATED_PRODUCT_CATEGORY ( 'detail', '', ( #243 ) ) ;
#16 = CYLINDRICAL_SURFACE ( 'NONE', #89, 4.000000000000000000 ) ;
#17 = ADVANCED_FACE ( 'NONE', ( #12 ), #121, .T. ) ;
#18 = CLOSED_SHELL ( 'NONE', ( #167, #51, #179, #247, #185, #17, #57 ) ) ;
#19 = APPROVAL ( #79, 'NEURÈENÝ' ) ;
#20 = APPROVAL_STATUS ( 'not_yet_approved' ) ;
#21 = DATE_AND_TIME ( #177, #26 ) ;
#22 = VERTEX_POINT ( 'NONE', #106 ) ;
#23 = PERSON_AND_ORGANIZATION ( #124, #67 ) ;
#24 =( NAMED_UNIT ( * ) PLANE_ANGLE_UNIT ( ) SI_UNIT ( $, .RADIAN. ) );
#25 = APPROVAL ( #97, 'NEURÈENÝ' ) ;
#26 = LOCAL_TIME ( 17, 6, 37.00000000000000000, #62 ) ;
#27 = VERTEX_POINT ( 'NONE', #86 ) ;
#28 = FACE_OUTER_BOUND ( 'NONE', #222, .T. ) ;
#29 = COORDINATED_UNIVERSAL_TIME_OFFSET ( 1, 0, .AHEAD. ) ;
#30 = CARTESIAN_POINT ( 'NONE',  ( 4.000000000000000000, 4.898587196589412829E-16, 3.000000000000000000 ) ) ;
#31 = ORIENTED_EDGE ( 'NONE', *, *, #44, .T. ) ;
#32 = CARTESIAN_POINT ( 'NONE',  ( 0.000000000000000000, 0.000000000000000000, 3.000000000000000000 ) ) ;
#33 = CYLINDRICAL_SURFACE ( 'NONE', #203, 4.000000000000000000 ) ;
#34 = VERTEX_POINT ( 'NONE', #159 ) ;
#35 = DIRECTION ( 'NONE',  ( 1.000000000000000000, 0.000000000000000000, 0.000000000000000000 ) ) ;
#36 = EDGE_LOOP ( 'NONE', ( #114, #52 ) ) ;
#37 = ORIENTED_EDGE ( 'NONE', *, *, #204, .T. ) ;
#38 = AXIS2_PLACEMENT_3D ( 'NONE', #193, #100, #35 ) ;
#39 = CARTESIAN_POINT ( 'NONE',  ( 0.000000000000000000, 0.000000000000000000, 3.000000000000000000 ) ) ;
#40 = AXIS2_PLACEMENT_3D ( 'NONE', #201, #245, #75 ) ;
#41 = EDGE_CURVE ( 'NONE', #27, #171, #229, .T. ) ;
#42 = CALENDAR_DATE ( 2023, 13, 2 ) ;
#43 = PERSON_AND_ORGANIZATION_ROLE ( 'design_supplier' ) ;
#44 = EDGE_CURVE ( 'NONE', #60, #171, #164, .T. ) ;
#45 = ORIENTED_EDGE ( 'NONE', *, *, #216, .F. ) ;
#46 = CARTESIAN_POINT ( 'NONE',  ( 0.000000000000000000, 0.000000000000000000, 200.0000000000000000 ) ) ;
#47 = PERSON_AND_ORGANIZATION_ROLE ( 'creator' ) ;
#48 = CARTESIAN_POINT ( 'NONE',  ( 2.250000000000000000, 2.755455298081544285E-16, 200.0000000000000000 ) ) ;
#49 = DIRECTION ( 'NONE',  ( 0.000000000000000000, 0.000000000000000000, 1.000000000000000000 ) ) ;
#50 = ORIENTED_EDGE ( 'NONE', *, *, #120, .T. ) ;
#51 = ADVANCED_FACE ( 'NONE', ( #28 ), #16, .T. ) ;
#52 = ORIENTED_EDGE ( 'NONE', *, *, #178, .T. ) ;
#53 =( GEOMETRIC_REPRESENTATION_CONTEXT ( 3 ) GLOBAL_UNCERTAINTY_ASSIGNED_CONTEXT ( ( #83 ) ) GLOBAL_UNIT_ASSIGNED_CONTEXT ( ( #195, #24, #173 ) ) REPRESENTATION_CONTEXT ( 'NONE', 'WORKASPACE' ) );
#54 = FACE_OUTER_BOUND ( 'NONE', #172, .T. ) ;
#55 = CARTESIAN_POINT ( 'NONE',  ( -4.000000000000000000, 0.000000000000000000, 3.000000000000000000 ) ) ;
#56 = CARTESIAN_POINT ( 'NONE',  ( 0.000000000000000000, 0.000000000000000000, 3.000000000000000000 ) ) ;
#57 = ADVANCED_FACE ( 'NONE', ( #76 ), #134, .T. ) ;
#58 = APPROVAL_PERSON_ORGANIZATION ( #166, #25, #74 ) ;
#59 = EDGE_CURVE ( 'NONE', #60, #136, #251, .T. ) ;
#60 = VERTEX_POINT ( 'NONE', #111 ) ;
#61 = DIRECTION ( 'NONE',  ( 1.000000000000000000, 0.000000000000000000, 0.000000000000000000 ) ) ;
#62 = COORDINATED_UNIVERSAL_TIME_OFFSET ( 1, 0, .AHEAD. ) ;
#63 = APPROVAL_DATE_TIME ( #232, #135 ) ;
#64 = DIRECTION ( 'NONE',  ( -0.000000000000000000, -0.000000000000000000, -1.000000000000000000 ) ) ;
#65 = VERTEX_POINT ( 'NONE', #255 ) ;
#66 = AXIS2_PLACEMENT_3D ( 'NONE', #253, #126, #105 ) ;
#67 = ORGANIZATION ( 'NEURÈENÝ', 'NEURÈENÝ', '' ) ;
#68 = DIRECTION ( 'NONE',  ( -0.000000000000000000, -0.000000000000000000, -1.000000000000000000 ) ) ;
#69 = CARTESIAN_POINT ( 'NONE',  ( 2.250000000000000000, 2.755455298081544285E-16, 200.0000000000000000 ) ) ;
#70 = DIRECTION ( 'NONE',  ( -0.000000000000000000, -0.000000000000000000, -1.000000000000000000 ) ) ;
#71 = VECTOR ( 'NONE', #68, 1000.000000000000000 ) ;
#72 = CC_DESIGN_SECURITY_CLASSIFICATION ( #11, ( #223 ) ) ;
#73 = CC_DESIGN_APPROVAL ( #25, ( #170 ) ) ;
#74 = APPROVAL_ROLE ( '' ) ;
#75 = DIRECTION ( 'NONE',  ( 1.000000000000000000, 0.000000000000000000, -0.000000000000000000 ) ) ;
#76 = FACE_OUTER_BOUND ( 'NONE', #36, .T. ) ;
#77 = EDGE_CURVE ( 'NONE', #22, #65, #224, .T. ) ;
#78 = DIRECTION ( 'NONE',  ( 0.000000000000000000, 0.000000000000000000, 1.000000000000000000 ) ) ;
#79 = APPROVAL_STATUS ( 'not_yet_approved' ) ;
#80 = AXIS2_PLACEMENT_3D ( 'NONE', #233, #64, #160 ) ;
#81 = ORIENTED_EDGE ( 'NONE', *, *, #44, .F. ) ;
#82 = CALENDAR_DATE ( 2023, 13, 2 ) ;
#83 = UNCERTAINTY_MEASURE_WITH_UNIT (LENGTH_MEASURE( 1.000000000000000082E-05 ), #195, 'distance_accuracy_value', 'NONE');
#84 = CYLINDRICAL_SURFACE ( 'NONE', #80, 2.250000000000000000 ) ;
#85 = DATE_AND_TIME ( #82, #104 ) ;
#86 = CARTESIAN_POINT ( 'NONE',  ( 4.000000000000000000, 4.898587196589412829E-16, 0.000000000000000000 ) ) ;
#87 = COORDINATED_UNIVERSAL_TIME_OFFSET ( 1, 0, .AHEAD. ) ;
#88 = LINE ( 'NONE', #30, #71 ) ;
#89 = AXIS2_PLACEMENT_3D ( 'NONE', #56, #132, #96 ) ;
#90 = DIRECTION ( 'NONE',  ( 0.000000000000000000, 0.000000000000000000, 1.000000000000000000 ) ) ;
#91 = CARTESIAN_POINT ( 'NONE',  ( 0.000000000000000000, 0.000000000000000000, 0.000000000000000000 ) ) ;
#92 = CC_DESIGN_PERSON_AND_ORGANIZATION_ASSIGNMENT ( #153, #10, ( #243 ) ) ;
#93 = LOCAL_TIME ( 17, 6, 37.00000000000000000, #29 ) ;
#94 = ORIENTED_EDGE ( 'NONE', *, *, #77, .T. ) ;
#95 = APPLICATION_PROTOCOL_DEFINITION ( 'international standard', 'config_control_design', 1994, #165 ) ;
#96 = DIRECTION ( 'NONE',  ( -1.000000000000000000, 0.000000000000000000, 0.000000000000000000 ) ) ;
#97 = APPROVAL_STATUS ( 'not_yet_approved' ) ;
#98 = PERSON_AND_ORGANIZATION ( #124, #67 ) ;
#99 = CARTESIAN_POINT ( 'NONE',  ( 0.000000000000000000, 0.000000000000000000, 0.000000000000000000 ) ) ;
#100 = DIRECTION ( 'NONE',  ( 0.000000000000000000, 0.000000000000000000, 1.000000000000000000 ) ) ;
#101 = ORIENTED_EDGE ( 'NONE', *, *, #216, .T. ) ;
#102 = CC_DESIGN_PERSON_AND_ORGANIZATION_ASSIGNMENT ( #146, #47, ( #170 ) ) ;
#103 = ORIENTED_EDGE ( 'NONE', *, *, #41, .T. ) ;
#104 = LOCAL_TIME ( 17, 6, 37.00000000000000000, #205 ) ;
#105 = DIRECTION ( 'NONE',  ( 1.000000000000000000, 0.000000000000000000, -0.000000000000000000 ) ) ;
#106 = CARTESIAN_POINT ( 'NONE',  ( -2.250000000000000000, 0.000000000000000000, 3.000000000000000000 ) ) ;
#107 = DIRECTION ( 'NONE',  ( -1.000000000000000000, 0.000000000000000000, 0.000000000000000000 ) ) ;
#108 = DIRECTION ( 'NONE',  ( -0.000000000000000000, -0.000000000000000000, -1.000000000000000000 ) ) ;
#109 = EDGE_CURVE ( 'NONE', #34, #230, #181, .T. ) ;
#110 = EDGE_LOOP ( 'NONE', ( #187, #101 ) ) ;
#111 = CARTESIAN_POINT ( 'NONE',  ( -4.000000000000000000, 0.000000000000000000, 3.000000000000000000 ) ) ;
#112 = FACE_OUTER_BOUND ( 'NONE', #110, .T. ) ;
#113 = ADVANCED_BREP_SHAPE_REPRESENTATION ( '97e3', ( #207, #152 ), #53 ) ;
#114 = ORIENTED_EDGE ( 'NONE', *, *, #109, .T. ) ;
#115 = PLANE ( 'NONE',  #66 ) ;
#116 = CARTESIAN_POINT ( 'NONE',  ( -2.250000000000000000, 0.000000000000000000, 200.0000000000000000 ) ) ;
#117 = ORIENTED_EDGE ( 'NONE', *, *, #120, .F. ) ;
#118 = AXIS2_PLACEMENT_3D ( 'NONE', #14, #206, #107 ) ;
#119 = DATE_TIME_ROLE ( 'creation_date' ) ;
#120 = EDGE_CURVE ( 'NONE', #230, #65, #4, .T. ) ;
#121 = CYLINDRICAL_SURFACE ( 'NONE', #118, 2.250000000000000000 ) ;
#122 = LOCAL_TIME ( 17, 6, 37.00000000000000000, #157 ) ;
#123 = SECURITY_CLASSIFICATION_LEVEL ( 'unclassified' ) ;
#124 = PERSON ( 'NEURÈENÝ', 'NEURÈENÝ', 'NEURÈENÝ', ('NEURÈENÝ'), ('NEURÈENÝ'), ('NEURÈENÝ') ) ;
#125 = EDGE_LOOP ( 'NONE', ( #117, #235, #213, #94 ) ) ;
#126 = DIRECTION ( 'NONE',  ( 0.000000000000000000, 0.000000000000000000, 1.000000000000000000 ) ) ;
#127 = PERSON_AND_ORGANIZATION_ROLE ( 'classification_officer' ) ;
#128 = DIRECTION ( 'NONE',  ( -0.000000000000000000, -0.000000000000000000, -1.000000000000000000 ) ) ;
#129 = VECTOR ( 'NONE', #128, 1000.000000000000000 ) ;
#130 = EDGE_CURVE ( 'NONE', #136, #27, #88, .T. ) ;
#131 = ORIENTED_EDGE ( 'NONE', *, *, #77, .F. ) ;
#132 = DIRECTION ( 'NONE',  ( -0.000000000000000000, -0.000000000000000000, -1.000000000000000000 ) ) ;
#133 = AXIS2_PLACEMENT_3D ( 'NONE', #190, #227, #61 ) ;
#134 = PLANE ( 'NONE',  #188 ) ;
#135 = APPROVAL ( #20, 'NEURÈENÝ' ) ;
#136 = VERTEX_POINT ( 'NONE', #162 ) ;
#137 = DIRECTION ( 'NONE',  ( 0.000000000000000000, 0.000000000000000000, 1.000000000000000000 ) ) ;
#138 = EDGE_LOOP ( 'NONE', ( #131, #200 ) ) ;
#139 = DIRECTION ( 'NONE',  ( 0.000000000000000000, 0.000000000000000000, 1.000000000000000000 ) ) ;
#140 = APPLICATION_PROTOCOL_DEFINITION ( 'international standard', 'config_control_design', 1994, #168 ) ;
#141 = ORIENTED_EDGE ( 'NONE', *, *, #130, .T. ) ;
#142 = FACE_BOUND ( 'NONE', #138, .T. ) ;
#143 = DIRECTION ( 'NONE',  ( 0.000000000000000000, 0.000000000000000000, 1.000000000000000000 ) ) ;
#144 = AXIS2_PLACEMENT_3D ( 'NONE', #46, #1, #254 ) ;
#145 = ORIENTED_EDGE ( 'NONE', *, *, #178, .F. ) ;
#146 = PERSON_AND_ORGANIZATION ( #124, #67 ) ;
#147 = DIRECTION ( 'NONE',  ( -1.000000000000000000, 0.000000000000000000, 0.000000000000000000 ) ) ;
#148 = DIRECTION ( 'NONE',  ( 0.000000000000000000, 0.000000000000000000, 1.000000000000000000 ) ) ;
#149 = ORIENTED_EDGE ( 'NONE', *, *, #186, .T. ) ;
#150 = CIRCLE ( 'NONE', #214, 4.000000000000000000 ) ;
#151 = ORIENTED_EDGE ( 'NONE', *, *, #130, .F. ) ;
#152 = AXIS2_PLACEMENT_3D ( 'NONE', #91, #49, #238 ) ;
#153 = PERSON_AND_ORGANIZATION ( #124, #67 ) ;
#154 = CALENDAR_DATE ( 2023, 13, 2 ) ;
#155 = APPROVAL_ROLE ( '' ) ;
#156 = CC_DESIGN_APPROVAL ( #19, ( #223 ) ) ;
#157 = COORDINATED_UNIVERSAL_TIME_OFFSET ( 1, 0, .AHEAD. ) ;
#158 = CC_DESIGN_PERSON_AND_ORGANIZATION_ASSIGNMENT ( #191, #127, ( #11 ) ) ;
#159 = CARTESIAN_POINT ( 'NONE',  ( -2.250000000000000000, 0.000000000000000000, 200.0000000000000000 ) ) ;
#160 = DIRECTION ( 'NONE',  ( -1.000000000000000000, 0.000000000000000000, 0.000000000000000000 ) ) ;
#161 = DIRECTION ( 'NONE',  ( 1.000000000000000000, 0.000000000000000000, 0.000000000000000000 ) ) ;
#162 = CARTESIAN_POINT ( 'NONE',  ( 4.000000000000000000, 4.898587196589412829E-16, 3.000000000000000000 ) ) ;
#163 = DIRECTION ( 'NONE',  ( 1.000000000000000000, 0.000000000000000000, 0.000000000000000000 ) ) ;
#164 = LINE ( 'NONE', #55, #129 ) ;
#165 = APPLICATION_CONTEXT ( 'configuration controlled 3d designs of mechanical parts and assemblies' ) ;
#166 = PERSON_AND_ORGANIZATION ( #124, #67 ) ;
#167 = ADVANCED_FACE ( 'NONE', ( #197 ), #84, .T. ) ;
#168 = APPLICATION_CONTEXT ( 'configuration controlled 3d designs of mechanical parts and assemblies' ) ;
#169 = ORIENTED_EDGE ( 'NONE', *, *, #59, .F. ) ;
#170 = PRODUCT_DEFINITION ( 'NEZNÁMÝ', '', #223, #250 ) ;
#171 = VERTEX_POINT ( 'NONE', #212 ) ;
#172 = EDGE_LOOP ( 'NONE', ( #218, #9 ) ) ;
#173 =( NAMED_UNIT ( * ) SI_UNIT ( $, .STERADIAN. ) SOLID_ANGLE_UNIT ( ) );
#174 = VECTOR ( 'NONE', #70, 1000.000000000000000 ) ;
#175 = DATE_AND_TIME ( #42, #93 ) ;
#176 = CC_DESIGN_DATE_AND_TIME_ASSIGNMENT ( #21, #189, ( #11 ) ) ;
#177 = CALENDAR_DATE ( 2023, 13, 2 ) ;
#178 = EDGE_CURVE ( 'NONE', #230, #34, #208, .T. ) ;
#179 = ADVANCED_FACE ( 'NONE', ( #234 ), #33, .T. ) ;
#180 = AXIS2_PLACEMENT_3D ( 'NONE', #39, #139, #2 ) ;
#181 = CIRCLE ( 'NONE', #38, 2.250000000000000000 ) ;
#182 = DIRECTION ( 'NONE',  ( 1.000000000000000000, 0.000000000000000000, 0.000000000000000000 ) ) ;
#183 = ORIENTED_EDGE ( 'NONE', *, *, #6, .F. ) ;
#184 = DIRECTION ( 'NONE',  ( -0.000000000000000000, -0.000000000000000000, -1.000000000000000000 ) ) ;
#185 = ADVANCED_FACE ( 'NONE', ( #54 ), #115, .F. ) ;
#186 = EDGE_CURVE ( 'NONE', #65, #22, #219, .T. ) ;
#187 = ORIENTED_EDGE ( 'NONE', *, *, #59, .T. ) ;
#188 = AXIS2_PLACEMENT_3D ( 'NONE', #246, #78, #226 ) ;
#189 = DATE_TIME_ROLE ( 'classification_date' ) ;
#190 = CARTESIAN_POINT ( 'NONE',  ( 0.000000000000000000, 0.000000000000000000, 3.000000000000000000 ) ) ;
#191 = PERSON_AND_ORGANIZATION ( #124, #67 ) ;
#192 = PERSON_AND_ORGANIZATION_ROLE ( 'creator' ) ;
#193 = CARTESIAN_POINT ( 'NONE',  ( 0.000000000000000000, 0.000000000000000000, 200.0000000000000000 ) ) ;
#194 = LOCAL_TIME ( 17, 6, 37.00000000000000000, #87 ) ;
#195 =( LENGTH_UNIT ( ) NAMED_UNIT ( * ) SI_UNIT ( .MILLI., .METRE. ) );
#196 = EDGE_LOOP ( 'NONE', ( #151, #169, #31, #37 ) ) ;
#197 = FACE_OUTER_BOUND ( 'NONE', #239, .T. ) ;
#198 = DATE_AND_TIME ( #217, #194 ) ;
#199 = APPROVAL_PERSON_ORGANIZATION ( #23, #135, #248 ) ;
#200 = ORIENTED_EDGE ( 'NONE', *, *, #186, .F. ) ;
#201 = CARTESIAN_POINT ( 'NONE',  ( 0.000000000000000000, 0.000000000000000000, 3.000000000000000000 ) ) ;
#202 = APPROVAL_PERSON_ORGANIZATION ( #98, #19, #155 ) ;
#203 = AXIS2_PLACEMENT_3D ( 'NONE', #32, #108, #147 ) ;
#204 = EDGE_CURVE ( 'NONE', #171, #27, #150, .T. ) ;
#205 = COORDINATED_UNIVERSAL_TIME_OFFSET ( 1, 0, .AHEAD. ) ;
#206 = DIRECTION ( 'NONE',  ( -0.000000000000000000, -0.000000000000000000, -1.000000000000000000 ) ) ;
#207 = MANIFOLD_SOLID_BREP ( 'Pøidat vysunutím3', #18 ) ;
#208 = CIRCLE ( 'NONE', #144, 2.250000000000000000 ) ;
#209 = CC_DESIGN_APPROVAL ( #135, ( #11 ) ) ;
#210 = PERSON_AND_ORGANIZATION ( #124, #67 ) ;
#211 = APPROVAL_DATE_TIME ( #175, #19 ) ;
#212 = CARTESIAN_POINT ( 'NONE',  ( -4.000000000000000000, 0.000000000000000000, 0.000000000000000000 ) ) ;
#213 = ORIENTED_EDGE ( 'NONE', *, *, #6, .T. ) ;
#214 = AXIS2_PLACEMENT_3D ( 'NONE', #99, #143, #182 ) ;
#215 = MECHANICAL_CONTEXT ( 'NONE', #168, 'mechanical' ) ;
#216 = EDGE_CURVE ( 'NONE', #136, #60, #8, .T. ) ;
#217 = CALENDAR_DATE ( 2023, 13, 2 ) ;
#218 = ORIENTED_EDGE ( 'NONE', *, *, #204, .F. ) ;
#219 = CIRCLE ( 'NONE', #252, 2.250000000000000000 ) ;
#220 = CC_DESIGN_PERSON_AND_ORGANIZATION_ASSIGNMENT ( #210, #192, ( #223 ) ) ;
#221 = PRODUCT_DEFINITION_SHAPE ( 'NONE', 'NONE',  #170 ) ;
#222 = EDGE_LOOP ( 'NONE', ( #45, #141, #103, #81 ) ) ;
#223 = PRODUCT_DEFINITION_FORMATION_WITH_SPECIFIED_SOURCE ( 'LIBOVOLNÝ', '', #243, .NOT_KNOWN. ) ;
#224 = CIRCLE ( 'NONE', #133, 2.250000000000000000 ) ;
#225 = LINE ( 'NONE', #116, #240 ) ;
#226 = DIRECTION ( 'NONE',  ( 1.000000000000000000, 0.000000000000000000, -0.000000000000000000 ) ) ;
#227 = DIRECTION ( 'NONE',  ( 0.000000000000000000, 0.000000000000000000, 1.000000000000000000 ) ) ;
#228 = SHAPE_DEFINITION_REPRESENTATION ( #221, #113 ) ;
#229 = CIRCLE ( 'NONE', #7, 4.000000000000000000 ) ;
#230 = VERTEX_POINT ( 'NONE', #69 ) ;
#231 = CARTESIAN_POINT ( 'NONE',  ( 0.000000000000000000, 0.000000000000000000, 3.000000000000000000 ) ) ;
#232 = DATE_AND_TIME ( #154, #122 ) ;
#233 = CARTESIAN_POINT ( 'NONE',  ( 0.000000000000000000, 0.000000000000000000, 200.0000000000000000 ) ) ;
#234 = FACE_OUTER_BOUND ( 'NONE', #196, .T. ) ;
#235 = ORIENTED_EDGE ( 'NONE', *, *, #109, .F. ) ;
#236 = CC_DESIGN_DATE_AND_TIME_ASSIGNMENT ( #198, #119, ( #170 ) ) ;
#237 = APPROVAL_DATE_TIME ( #85, #25 ) ;
#238 = DIRECTION ( 'NONE',  ( 1.000000000000000000, 0.000000000000000000, 0.000000000000000000 ) ) ;
#239 = EDGE_LOOP ( 'NONE', ( #145, #50, #149, #183 ) ) ;
#240 = VECTOR ( 'NONE', #184, 1000.000000000000000 ) ;
#241 = AXIS2_PLACEMENT_3D ( 'NONE', #3, #90, #161 ) ;
#242 = DIRECTION ( 'NONE',  ( 1.000000000000000000, 0.000000000000000000, 0.000000000000000000 ) ) ;
#243 = PRODUCT ( '97e3', '97e3', '', ( #215 ) ) ;
#244 = CARTESIAN_POINT ( 'NONE',  ( 0.000000000000000000, 0.000000000000000000, 0.000000000000000000 ) ) ;
#245 = DIRECTION ( 'NONE',  ( 0.000000000000000000, 0.000000000000000000, 1.000000000000000000 ) ) ;
#246 = CARTESIAN_POINT ( 'NONE',  ( 0.000000000000000000, 0.000000000000000000, 200.0000000000000000 ) ) ;
#247 = ADVANCED_FACE ( 'NONE', ( #142, #112 ), #5, .T. ) ;
#248 = APPROVAL_ROLE ( '' ) ;
#249 = PERSON_AND_ORGANIZATION ( #124, #67 ) ;
#250 = DESIGN_CONTEXT ( 'detailed design', #165, 'design' ) ;
#251 = CIRCLE ( 'NONE', #180, 4.000000000000000000 ) ;
#252 = AXIS2_PLACEMENT_3D ( 'NONE', #231, #137, #242 ) ;
#253 = CARTESIAN_POINT ( 'NONE',  ( 0.000000000000000000, 0.000000000000000000, 0.000000000000000000 ) ) ;
#254 = DIRECTION ( 'NONE',  ( 1.000000000000000000, 0.000000000000000000, 0.000000000000000000 ) ) ;
#255 = CARTESIAN_POINT ( 'NONE',  ( 2.250000000000000000, 2.755455298081544285E-16, 3.000000000000000000 ) ) ;
ENDSEC;
END-ISO-10303-21;
