ISO-10303-21;
HEADER;
FILE_DESCRIPTION (( 'STEP AP203' ),
    '1' );
FILE_NAME ('c138.STEP',
    '2023-02-13T13:52:24',
    ( '' ),
    ( '' ),
    'SwSTEP 2.0',
    'SolidWorks 2019',
    '' );
FILE_SCHEMA (( 'CONFIG_CONTROL_DESIGN' ));
ENDSEC;

DATA;
#1 = ORIENTED_EDGE ( 'NONE', *, *, #27, .F. ) ;
#2 = DIRECTION ( 'NONE',  ( 1.000000000000000000, 0.000000000000000000, -0.000000000000000000 ) ) ;
#3 = AXIS2_PLACEMENT_3D ( 'NONE', #224, #183, #146 ) ;
#4 = ADVANCED_FACE ( 'NONE', ( #109 ), #158, .T. ) ;
#5 = CARTESIAN_POINT ( 'NONE',  ( 0.000000000000000000, 0.000000000000000000, 500.0000000000000000 ) ) ;
#6 = CARTESIAN_POINT ( 'NONE',  ( 0.000000000000000000, 0.000000000000000000, 5.000000000000000000 ) ) ;
#7 = DIRECTION ( 'NONE',  ( 0.000000000000000000, 0.000000000000000000, 1.000000000000000000 ) ) ;
#8 = DIRECTION ( 'NONE',  ( -0.000000000000000000, -0.000000000000000000, -1.000000000000000000 ) ) ;
#9 = APPLICATION_CONTEXT ( 'configuration controlled 3d designs of mechanical parts and assemblies' ) ;
#10 = CLOSED_SHELL ( 'NONE', ( #37, #241, #4, #215, #248, #173, #136 ) ) ;
#11 = PERSON_AND_ORGANIZATION ( #33, #198 ) ;
#12 = APPROVAL_ROLE ( '' ) ;
#13 = PERSON_AND_ORGANIZATION ( #33, #198 ) ;
#14 = CC_DESIGN_DATE_AND_TIME_ASSIGNMENT ( #140, #228, ( #74 ) ) ;
#15 = EDGE_LOOP ( 'NONE', ( #251, #235, #236, #123 ) ) ;
#16 = COORDINATED_UNIVERSAL_TIME_OFFSET ( 1, 0, .AHEAD. ) ;
#17 = VERTEX_POINT ( 'NONE', #144 ) ;
#18 = PERSON_AND_ORGANIZATION_ROLE ( 'creator' ) ;
#19 = DIRECTION ( 'NONE',  ( -1.000000000000000000, 0.000000000000000000, 0.000000000000000000 ) ) ;
#20 = LOCAL_TIME ( 14, 52, 24.00000000000000000, #16 ) ;
#21 = EDGE_CURVE ( 'NONE', #156, #124, #110, .T. ) ;
#22 = VERTEX_POINT ( 'NONE', #231 ) ;
#23 = UNCERTAINTY_MEASURE_WITH_UNIT (LENGTH_MEASURE( 1.000000000000000082E-05 ), #131, 'distance_accuracy_value', 'NONE');
#24 = VECTOR ( 'NONE', #48, 1000.000000000000000 ) ;
#25 = ORIENTED_EDGE ( 'NONE', *, *, #129, .T. ) ;
#26 = DIRECTION ( 'NONE',  ( 0.000000000000000000, 0.000000000000000000, 1.000000000000000000 ) ) ;
#27 = EDGE_CURVE ( 'NONE', #161, #22, #122, .T. ) ;
#28 = CARTESIAN_POINT ( 'NONE',  ( 4.250000000000000000, 5.204748896376250699E-16, 500.0000000000000000 ) ) ;
#29 = EDGE_CURVE ( 'NONE', #156, #83, #46, .T. ) ;
#30 = PLANE ( 'NONE',  #67 ) ;
#31 = DIRECTION ( 'NONE',  ( 1.000000000000000000, 0.000000000000000000, 0.000000000000000000 ) ) ;
#32 = PERSON_AND_ORGANIZATION ( #33, #198 ) ;
#33 = PERSON ( 'NEURÈENÝ', 'NEURÈENÝ', 'NEURÈENÝ', ('NEURÈENÝ'), ('NEURÈENÝ'), ('NEURÈENÝ') ) ;
#34 = PERSON_AND_ORGANIZATION_ROLE ( 'creator' ) ;
#35 = LOCAL_TIME ( 14, 52, 24.00000000000000000, #135 ) ;
#36 = CARTESIAN_POINT ( 'NONE',  ( 0.000000000000000000, 0.000000000000000000, 0.000000000000000000 ) ) ;
#37 = ADVANCED_FACE ( 'NONE', ( #212 ), #105, .T. ) ;
#38 = APPROVAL_PERSON_ORGANIZATION ( #32, #148, #247 ) ;
#39 = CC_DESIGN_PERSON_AND_ORGANIZATION_ASSIGNMENT ( #159, #54, ( #74 ) ) ;
#40 = DIRECTION ( 'NONE',  ( 0.000000000000000000, 0.000000000000000000, 1.000000000000000000 ) ) ;
#41 = ORIENTED_EDGE ( 'NONE', *, *, #21, .T. ) ;
#42 = ORIENTED_EDGE ( 'NONE', *, *, #66, .T. ) ;
#43 = VECTOR ( 'NONE', #141, 1000.000000000000000 ) ;
#44 = EDGE_LOOP ( 'NONE', ( #160, #175 ) ) ;
#45 = DIRECTION ( 'NONE',  ( 0.000000000000000000, 0.000000000000000000, 1.000000000000000000 ) ) ;
#46 = LINE ( 'NONE', #182, #43 ) ;
#47 = AXIS2_PLACEMENT_3D ( 'NONE', #195, #133, #31 ) ;
#48 = DIRECTION ( 'NONE',  ( -0.000000000000000000, -0.000000000000000000, -1.000000000000000000 ) ) ;
#49 = FACE_OUTER_BOUND ( 'NONE', #15, .T. ) ;
#50 = CARTESIAN_POINT ( 'NONE',  ( -4.250000000000000000, 0.000000000000000000, 500.0000000000000000 ) ) ;
#51 = AXIS2_PLACEMENT_3D ( 'NONE', #120, #214, #19 ) ;
#52 = CARTESIAN_POINT ( 'NONE',  ( -7.000000000000000000, 0.000000000000000000, 5.000000000000000000 ) ) ;
#53 = PLANE ( 'NONE',  #193 ) ;
#54 = PERSON_AND_ORGANIZATION_ROLE ( 'classification_officer' ) ;
#55 = CC_DESIGN_APPROVAL ( #148, ( #72 ) ) ;
#56 = DATE_AND_TIME ( #73, #192 ) ;
#57 = EDGE_CURVE ( 'NONE', #255, #82, #181, .T. ) ;
#58 = DIRECTION ( 'NONE',  ( -1.000000000000000000, 0.000000000000000000, 0.000000000000000000 ) ) ;
#59 = EDGE_LOOP ( 'NONE', ( #174, #143 ) ) ;
#60 = PRODUCT_DEFINITION_SHAPE ( 'NONE', 'NONE',  #72 ) ;
#61 = CC_DESIGN_PERSON_AND_ORGANIZATION_ASSIGNMENT ( #170, #196, ( #96 ) ) ;
#62 = DIRECTION ( 'NONE',  ( -0.000000000000000000, -0.000000000000000000, -1.000000000000000000 ) ) ;
#63 = ORIENTED_EDGE ( 'NONE', *, *, #229, .F. ) ;
#64 = CARTESIAN_POINT ( 'NONE',  ( 7.000000000000000000, 8.572527594031473190E-16, 5.000000000000000000 ) ) ;
#65 = LINE ( 'NONE', #52, #99 ) ;
#66 = EDGE_CURVE ( 'NONE', #17, #83, #194, .T. ) ;
#67 = AXIS2_PLACEMENT_3D ( 'NONE', #68, #7, #150 ) ;
#68 = CARTESIAN_POINT ( 'NONE',  ( 0.000000000000000000, 0.000000000000000000, 0.000000000000000000 ) ) ;
#69 = DIRECTION ( 'NONE',  ( 0.000000000000000000, 0.000000000000000000, 1.000000000000000000 ) ) ;
#70 = LOCAL_TIME ( 14, 52, 24.00000000000000000, #106 ) ;
#71 = CALENDAR_DATE ( 2023, 13, 2 ) ;
#72 = PRODUCT_DEFINITION ( 'NEZNÁMÝ', '', #96, #189 ) ;
#73 = CALENDAR_DATE ( 2023, 13, 2 ) ;
#74 = SECURITY_CLASSIFICATION ( '', '', #152 ) ;
#75 = PRODUCT ( 'c138', 'c138', '', ( #97 ) ) ;
#76 = ORIENTED_EDGE ( 'NONE', *, *, #29, .T. ) ;
#77 = DATE_AND_TIME ( #118, #20 ) ;
#78 = APPROVAL_PERSON_ORGANIZATION ( #119, #92, #157 ) ;
#79 = EDGE_LOOP ( 'NONE', ( #63, #216, #102, #25 ) ) ;
#80 = APPROVAL_DATE_TIME ( #172, #114 ) ;
#81 = AXIS2_PLACEMENT_3D ( 'NONE', #93, #69, #208 ) ;
#82 = VERTEX_POINT ( 'NONE', #188 ) ;
#83 = VERTEX_POINT ( 'NONE', #218 ) ;
#84 = AXIS2_PLACEMENT_3D ( 'NONE', #147, #149, #111 ) ;
#85 = EDGE_LOOP ( 'NONE', ( #107, #162, #42, #177 ) ) ;
#86 = CIRCLE ( 'NONE', #220, 7.000000000000000000 ) ;
#87 = CARTESIAN_POINT ( 'NONE',  ( 0.000000000000000000, 0.000000000000000000, 5.000000000000000000 ) ) ;
#88 = CARTESIAN_POINT ( 'NONE',  ( 7.000000000000000000, 8.572527594031473190E-16, 0.000000000000000000 ) ) ;
#89 = AXIS2_PLACEMENT_3D ( 'NONE', #230, #62, #58 ) ;
#90 = DIRECTION ( 'NONE',  ( 0.000000000000000000, 0.000000000000000000, 1.000000000000000000 ) ) ;
#91 =( NAMED_UNIT ( * ) PLANE_ANGLE_UNIT ( ) SI_UNIT ( $, .RADIAN. ) );
#92 = APPROVAL ( #245, 'NEURÈENÝ' ) ;
#93 = CARTESIAN_POINT ( 'NONE',  ( 0.000000000000000000, 0.000000000000000000, 0.000000000000000000 ) ) ;
#94 = EDGE_CURVE ( 'NONE', #82, #22, #65, .T. ) ;
#95 = AXIS2_PLACEMENT_3D ( 'NONE', #201, #217, #197 ) ;
#96 = PRODUCT_DEFINITION_FORMATION_WITH_SPECIFIED_SOURCE ( 'LIBOVOLNÝ', '', #75, .NOT_KNOWN. ) ;
#97 = MECHANICAL_CONTEXT ( 'NONE', #137, 'mechanical' ) ;
#98 = PERSON_AND_ORGANIZATION_ROLE ( 'design_owner' ) ;
#99 = VECTOR ( 'NONE', #8, 1000.000000000000000 ) ;
#100 = APPROVAL_PERSON_ORGANIZATION ( #226, #114, #12 ) ;
#101 = CC_DESIGN_SECURITY_CLASSIFICATION ( #74, ( #96 ) ) ;
#102 = ORIENTED_EDGE ( 'NONE', *, *, #94, .T. ) ;
#103 = DATE_AND_TIME ( #71, #70 ) ;
#104 = EDGE_CURVE ( 'NONE', #124, #156, #234, .T. ) ;
#105 = CYLINDRICAL_SURFACE ( 'NONE', #51, 4.250000000000000000 ) ;
#106 = COORDINATED_UNIVERSAL_TIME_OFFSET ( 1, 0, .AHEAD. ) ;
#107 = ORIENTED_EDGE ( 'NONE', *, *, #104, .F. ) ;
#108 = ORIENTED_EDGE ( 'NONE', *, *, #254, .T. ) ;
#109 = FACE_OUTER_BOUND ( 'NONE', #79, .T. ) ;
#110 = CIRCLE ( 'NONE', #227, 4.250000000000000000 ) ;
#111 = DIRECTION ( 'NONE',  ( 1.000000000000000000, 0.000000000000000000, 0.000000000000000000 ) ) ;
#112 = DIRECTION ( 'NONE',  ( -0.000000000000000000, -0.000000000000000000, -1.000000000000000000 ) ) ;
#113 = LINE ( 'NONE', #64, #24 ) ;
#114 = APPROVAL ( #176, 'NEURÈENÝ' ) ;
#115 = VECTOR ( 'NONE', #168, 1000.000000000000000 ) ;
#116 = FACE_OUTER_BOUND ( 'NONE', #249, .T. ) ;
#117 = AXIS2_PLACEMENT_3D ( 'NONE', #204, #112, #165 ) ;
#118 = CALENDAR_DATE ( 2023, 13, 2 ) ;
#119 = PERSON_AND_ORGANIZATION ( #33, #198 ) ;
#120 = CARTESIAN_POINT ( 'NONE',  ( 0.000000000000000000, 0.000000000000000000, 500.0000000000000000 ) ) ;
#121 = DIRECTION ( 'NONE',  ( 1.000000000000000000, 0.000000000000000000, 0.000000000000000000 ) ) ;
#122 = CIRCLE ( 'NONE', #95, 7.000000000000000000 ) ;
#123 = ORIENTED_EDGE ( 'NONE', *, *, #94, .F. ) ;
#124 = VERTEX_POINT ( 'NONE', #184 ) ;
#125 = DIRECTION ( 'NONE',  ( 1.000000000000000000, 0.000000000000000000, 0.000000000000000000 ) ) ;
#126 = AXIS2_PLACEMENT_3D ( 'NONE', #6, #90, #187 ) ;
#127 = EDGE_LOOP ( 'NONE', ( #41, #179 ) ) ;
#128 = CYLINDRICAL_SURFACE ( 'NONE', #117, 7.000000000000000000 ) ;
#129 = EDGE_CURVE ( 'NONE', #22, #161, #167, .T. ) ;
#130 = FACE_OUTER_BOUND ( 'NONE', #253, .T. ) ;
#131 =( LENGTH_UNIT ( ) NAMED_UNIT ( * ) SI_UNIT ( .MILLI., .METRE. ) );
#132 = ADVANCED_BREP_SHAPE_REPRESENTATION ( 'c138', ( #238, #207 ), #252 ) ;
#133 = DIRECTION ( 'NONE',  ( 0.000000000000000000, 0.000000000000000000, 1.000000000000000000 ) ) ;
#134 =( NAMED_UNIT ( * ) SI_UNIT ( $, .STERADIAN. ) SOLID_ANGLE_UNIT ( ) );
#135 = COORDINATED_UNIVERSAL_TIME_OFFSET ( 1, 0, .AHEAD. ) ;
#136 = ADVANCED_FACE ( 'NONE', ( #169 ), #242, .T. ) ;
#137 = APPLICATION_CONTEXT ( 'configuration controlled 3d designs of mechanical parts and assemblies' ) ;
#138 = EDGE_CURVE ( 'NONE', #124, #17, #185, .T. ) ;
#139 = CC_DESIGN_APPROVAL ( #114, ( #96 ) ) ;
#140 = DATE_AND_TIME ( #211, #35 ) ;
#141 = DIRECTION ( 'NONE',  ( -0.000000000000000000, -0.000000000000000000, -1.000000000000000000 ) ) ;
#142 = ORIENTED_EDGE ( 'NONE', *, *, #21, .F. ) ;
#143 = ORIENTED_EDGE ( 'NONE', *, *, #66, .F. ) ;
#144 = CARTESIAN_POINT ( 'NONE',  ( 4.250000000000000000, 5.204748896376250699E-16, 5.000000000000000000 ) ) ;
#145 = CARTESIAN_POINT ( 'NONE',  ( 0.000000000000000000, 0.000000000000000000, 500.0000000000000000 ) ) ;
#146 = DIRECTION ( 'NONE',  ( -1.000000000000000000, 0.000000000000000000, 0.000000000000000000 ) ) ;
#147 = CARTESIAN_POINT ( 'NONE',  ( 0.000000000000000000, 0.000000000000000000, 5.000000000000000000 ) ) ;
#148 = APPROVAL ( #213, 'NEURÈENÝ' ) ;
#149 = DIRECTION ( 'NONE',  ( 0.000000000000000000, 0.000000000000000000, 1.000000000000000000 ) ) ;
#150 = DIRECTION ( 'NONE',  ( 1.000000000000000000, 0.000000000000000000, -0.000000000000000000 ) ) ;
#151 = CYLINDRICAL_SURFACE ( 'NONE', #3, 4.250000000000000000 ) ;
#152 = SECURITY_CLASSIFICATION_LEVEL ( 'unclassified' ) ;
#153 = COORDINATED_UNIVERSAL_TIME_OFFSET ( 1, 0, .AHEAD. ) ;
#154 = PERSON_AND_ORGANIZATION ( #33, #198 ) ;
#155 = CC_DESIGN_PERSON_AND_ORGANIZATION_ASSIGNMENT ( #13, #34, ( #72 ) ) ;
#156 = VERTEX_POINT ( 'NONE', #50 ) ;
#157 = APPROVAL_ROLE ( '' ) ;
#158 = CYLINDRICAL_SURFACE ( 'NONE', #89, 7.000000000000000000 ) ;
#159 = PERSON_AND_ORGANIZATION ( #33, #198 ) ;
#160 = ORIENTED_EDGE ( 'NONE', *, *, #221, .T. ) ;
#161 = VERTEX_POINT ( 'NONE', #88 ) ;
#162 = ORIENTED_EDGE ( 'NONE', *, *, #138, .T. ) ;
#163 = DIRECTION ( 'NONE',  ( 0.000000000000000000, 0.000000000000000000, 1.000000000000000000 ) ) ;
#164 = CC_DESIGN_PERSON_AND_ORGANIZATION_ASSIGNMENT ( #154, #18, ( #96 ) ) ;
#165 = DIRECTION ( 'NONE',  ( -1.000000000000000000, 0.000000000000000000, 0.000000000000000000 ) ) ;
#166 = CARTESIAN_POINT ( 'NONE',  ( 7.000000000000000000, 8.572527594031473190E-16, 5.000000000000000000 ) ) ;
#167 = CIRCLE ( 'NONE', #81, 7.000000000000000000 ) ;
#168 = DIRECTION ( 'NONE',  ( -0.000000000000000000, -0.000000000000000000, -1.000000000000000000 ) ) ;
#169 = FACE_OUTER_BOUND ( 'NONE', #127, .T. ) ;
#170 = PERSON_AND_ORGANIZATION ( #33, #198 ) ;
#171 = COORDINATED_UNIVERSAL_TIME_OFFSET ( 1, 0, .AHEAD. ) ;
#172 = DATE_AND_TIME ( #209, #186 ) ;
#173 = ADVANCED_FACE ( 'NONE', ( #116 ), #151, .T. ) ;
#174 = ORIENTED_EDGE ( 'NONE', *, *, #254, .F. ) ;
#175 = ORIENTED_EDGE ( 'NONE', *, *, #57, .T. ) ;
#176 = APPROVAL_STATUS ( 'not_yet_approved' ) ;
#177 = ORIENTED_EDGE ( 'NONE', *, *, #29, .F. ) ;
#178 = AXIS2_PLACEMENT_3D ( 'NONE', #5, #222, #244 ) ;
#179 = ORIENTED_EDGE ( 'NONE', *, *, #104, .T. ) ;
#180 = PRODUCT_RELATED_PRODUCT_CATEGORY ( 'detail', '', ( #75 ) ) ;
#181 = CIRCLE ( 'NONE', #47, 7.000000000000000000 ) ;
#182 = CARTESIAN_POINT ( 'NONE',  ( -4.250000000000000000, 0.000000000000000000, 500.0000000000000000 ) ) ;
#183 = DIRECTION ( 'NONE',  ( -0.000000000000000000, -0.000000000000000000, -1.000000000000000000 ) ) ;
#184 = CARTESIAN_POINT ( 'NONE',  ( 4.250000000000000000, 5.204748896376250699E-16, 500.0000000000000000 ) ) ;
#185 = LINE ( 'NONE', #28, #115 ) ;
#186 = LOCAL_TIME ( 14, 52, 24.00000000000000000, #171 ) ;
#187 = DIRECTION ( 'NONE',  ( 1.000000000000000000, 0.000000000000000000, 0.000000000000000000 ) ) ;
#188 = CARTESIAN_POINT ( 'NONE',  ( -7.000000000000000000, 0.000000000000000000, 5.000000000000000000 ) ) ;
#189 = DESIGN_CONTEXT ( 'detailed design', #9, 'design' ) ;
#190 = DATE_TIME_ROLE ( 'creation_date' ) ;
#191 = APPLICATION_PROTOCOL_DEFINITION ( 'international standard', 'config_control_design', 1994, #9 ) ;
#192 = LOCAL_TIME ( 14, 52, 24.00000000000000000, #153 ) ;
#193 = AXIS2_PLACEMENT_3D ( 'NONE', #205, #202, #2 ) ;
#194 = CIRCLE ( 'NONE', #84, 4.250000000000000000 ) ;
#195 = CARTESIAN_POINT ( 'NONE',  ( 0.000000000000000000, 0.000000000000000000, 5.000000000000000000 ) ) ;
#196 = PERSON_AND_ORGANIZATION_ROLE ( 'design_supplier' ) ;
#197 = DIRECTION ( 'NONE',  ( 1.000000000000000000, 0.000000000000000000, 0.000000000000000000 ) ) ;
#198 = ORGANIZATION ( 'NEURÈENÝ', 'NEURÈENÝ', '' ) ;
#199 = CC_DESIGN_PERSON_AND_ORGANIZATION_ASSIGNMENT ( #11, #98, ( #75 ) ) ;
#200 = ORIENTED_EDGE ( 'NONE', *, *, #138, .F. ) ;
#201 = CARTESIAN_POINT ( 'NONE',  ( 0.000000000000000000, 0.000000000000000000, 0.000000000000000000 ) ) ;
#202 = DIRECTION ( 'NONE',  ( 0.000000000000000000, 0.000000000000000000, 1.000000000000000000 ) ) ;
#203 = DIRECTION ( 'NONE',  ( 1.000000000000000000, 0.000000000000000000, 0.000000000000000000 ) ) ;
#204 = CARTESIAN_POINT ( 'NONE',  ( 0.000000000000000000, 0.000000000000000000, 5.000000000000000000 ) ) ;
#205 = CARTESIAN_POINT ( 'NONE',  ( 0.000000000000000000, 0.000000000000000000, 5.000000000000000000 ) ) ;
#206 = CC_DESIGN_APPROVAL ( #92, ( #74 ) ) ;
#207 = AXIS2_PLACEMENT_3D ( 'NONE', #36, #40, #121 ) ;
#208 = DIRECTION ( 'NONE',  ( 1.000000000000000000, 0.000000000000000000, 0.000000000000000000 ) ) ;
#209 = CALENDAR_DATE ( 2023, 13, 2 ) ;
#210 = APPROVAL_DATE_TIME ( #77, #148 ) ;
#211 = CALENDAR_DATE ( 2023, 13, 2 ) ;
#212 = FACE_OUTER_BOUND ( 'NONE', #85, .T. ) ;
#213 = APPROVAL_STATUS ( 'not_yet_approved' ) ;
#214 = DIRECTION ( 'NONE',  ( -0.000000000000000000, -0.000000000000000000, -1.000000000000000000 ) ) ;
#215 = ADVANCED_FACE ( 'NONE', ( #240, #239 ), #53, .T. ) ;
#216 = ORIENTED_EDGE ( 'NONE', *, *, #221, .F. ) ;
#217 = DIRECTION ( 'NONE',  ( 0.000000000000000000, 0.000000000000000000, 1.000000000000000000 ) ) ;
#218 = CARTESIAN_POINT ( 'NONE',  ( -4.250000000000000000, 0.000000000000000000, 5.000000000000000000 ) ) ;
#219 = CARTESIAN_POINT ( 'NONE',  ( 0.000000000000000000, 0.000000000000000000, 500.0000000000000000 ) ) ;
#220 = AXIS2_PLACEMENT_3D ( 'NONE', #87, #163, #237 ) ;
#221 = EDGE_CURVE ( 'NONE', #82, #255, #86, .T. ) ;
#222 = DIRECTION ( 'NONE',  ( 0.000000000000000000, 0.000000000000000000, 1.000000000000000000 ) ) ;
#223 = AXIS2_PLACEMENT_3D ( 'NONE', #219, #26, #203 ) ;
#224 = CARTESIAN_POINT ( 'NONE',  ( 0.000000000000000000, 0.000000000000000000, 500.0000000000000000 ) ) ;
#225 = APPROVAL_DATE_TIME ( #103, #92 ) ;
#226 = PERSON_AND_ORGANIZATION ( #33, #198 ) ;
#227 = AXIS2_PLACEMENT_3D ( 'NONE', #145, #45, #125 ) ;
#228 = DATE_TIME_ROLE ( 'classification_date' ) ;
#229 = EDGE_CURVE ( 'NONE', #255, #161, #113, .T. ) ;
#230 = CARTESIAN_POINT ( 'NONE',  ( 0.000000000000000000, 0.000000000000000000, 5.000000000000000000 ) ) ;
#231 = CARTESIAN_POINT ( 'NONE',  ( -7.000000000000000000, 0.000000000000000000, 0.000000000000000000 ) ) ;
#232 = SHAPE_DEFINITION_REPRESENTATION ( #60, #132 ) ;
#233 = ORIENTED_EDGE ( 'NONE', *, *, #129, .F. ) ;
#234 = CIRCLE ( 'NONE', #223, 4.250000000000000000 ) ;
#235 = ORIENTED_EDGE ( 'NONE', *, *, #229, .T. ) ;
#236 = ORIENTED_EDGE ( 'NONE', *, *, #27, .T. ) ;
#237 = DIRECTION ( 'NONE',  ( 1.000000000000000000, 0.000000000000000000, 0.000000000000000000 ) ) ;
#238 = MANIFOLD_SOLID_BREP ( 'Pøidat vysunutím3', #10 ) ;
#239 = FACE_OUTER_BOUND ( 'NONE', #44, .T. ) ;
#240 = FACE_BOUND ( 'NONE', #59, .T. ) ;
#241 = ADVANCED_FACE ( 'NONE', ( #49 ), #128, .T. ) ;
#242 = PLANE ( 'NONE',  #178 ) ;
#243 = CIRCLE ( 'NONE', #126, 4.250000000000000000 ) ;
#244 = DIRECTION ( 'NONE',  ( 1.000000000000000000, 0.000000000000000000, -0.000000000000000000 ) ) ;
#245 = APPROVAL_STATUS ( 'not_yet_approved' ) ;
#246 = APPLICATION_PROTOCOL_DEFINITION ( 'international standard', 'config_control_design', 1994, #137 ) ;
#247 = APPROVAL_ROLE ( '' ) ;
#248 = ADVANCED_FACE ( 'NONE', ( #130 ), #30, .F. ) ;
#249 = EDGE_LOOP ( 'NONE', ( #200, #142, #76, #108 ) ) ;
#250 = CC_DESIGN_DATE_AND_TIME_ASSIGNMENT ( #56, #190, ( #72 ) ) ;
#251 = ORIENTED_EDGE ( 'NONE', *, *, #57, .F. ) ;
#252 =( GEOMETRIC_REPRESENTATION_CONTEXT ( 3 ) GLOBAL_UNCERTAINTY_ASSIGNED_CONTEXT ( ( #23 ) ) GLOBAL_UNIT_ASSIGNED_CONTEXT ( ( #131, #91, #134 ) ) REPRESENTATION_CONTEXT ( 'NONE', 'WORKASPACE' ) );
#253 = EDGE_LOOP ( 'NONE', ( #233, #1 ) ) ;
#254 = EDGE_CURVE ( 'NONE', #83, #17, #243, .T. ) ;
#255 = VERTEX_POINT ( 'NONE', #166 ) ;
ENDSEC;
END-ISO-10303-21;
