ISO-10303-21;
HEADER;
FILE_DESCRIPTION (( 'STEP AP203' ),
    '1' );
FILE_NAME ('bab3.STEP',
    '2023-02-13T16:26:17',
    ( '' ),
    ( '' ),
    'SwSTEP 2.0',
    'SolidWorks 2019',
    '' );
FILE_SCHEMA (( 'CONFIG_CONTROL_DESIGN' ));
ENDSEC;

DATA;
#1 = CYLINDRICAL_SURFACE ( 'NONE', #159, 3.000000000000000444 ) ;
#2 =( LENGTH_UNIT ( ) NAMED_UNIT ( * ) SI_UNIT ( .MILLI., .METRE. ) );
#3 = ORIENTED_EDGE ( 'NONE', *, *, #213, .F. ) ;
#4 = CC_DESIGN_PERSON_AND_ORGANIZATION_ASSIGNMENT ( #54, #208, ( #253 ) ) ;
#5 = VERTEX_POINT ( 'NONE', #88 ) ;
#6 = CC_DESIGN_APPROVAL ( #193, ( #253 ) ) ;
#7 = EDGE_CURVE ( 'NONE', #45, #5, #229, .T. ) ;
#8 = CALENDAR_DATE ( 2023, 13, 2 ) ;
#9 = FACE_OUTER_BOUND ( 'NONE', #23, .T. ) ;
#10 = CYLINDRICAL_SURFACE ( 'NONE', #163, 1.500000000000000222 ) ;
#11 = CC_DESIGN_SECURITY_CLASSIFICATION ( #73, ( #253 ) ) ;
#12 = PERSON_AND_ORGANIZATION ( #122, #141 ) ;
#13 = FACE_OUTER_BOUND ( 'NONE', #220, .T. ) ;
#14 = ADVANCED_FACE ( 'NONE', ( #186 ), #1, .T. ) ;
#15 = APPROVAL_PERSON_ORGANIZATION ( #34, #193, #74 ) ;
#16 = FACE_OUTER_BOUND ( 'NONE', #59, .T. ) ;
#17 = ORIENTED_EDGE ( 'NONE', *, *, #7, .T. ) ;
#18 = CIRCLE ( 'NONE', #171, 1.500000000000000222 ) ;
#19 = LOCAL_TIME ( 17, 26, 17.00000000000000000, #29 ) ;
#20 = DIRECTION ( 'NONE',  ( 0.000000000000000000, 0.000000000000000000, 1.000000000000000000 ) ) ;
#21 = EDGE_LOOP ( 'NONE', ( #106, #111 ) ) ;
#22 = ADVANCED_FACE ( 'NONE', ( #9 ), #36, .F. ) ;
#23 = EDGE_LOOP ( 'NONE', ( #130, #156 ) ) ;
#24 = DIRECTION ( 'NONE',  ( 1.000000000000000000, 0.000000000000000000, 0.000000000000000000 ) ) ;
#25 = ORIENTED_EDGE ( 'NONE', *, *, #108, .T. ) ;
#26 = AXIS2_PLACEMENT_3D ( 'NONE', #151, #42, #24 ) ;
#27 = EDGE_CURVE ( 'NONE', #64, #153, #188, .T. ) ;
#28 = ORIENTED_EDGE ( 'NONE', *, *, #124, .T. ) ;
#29 = COORDINATED_UNIVERSAL_TIME_OFFSET ( 1, 0, .AHEAD. ) ;
#30 = ORIENTED_EDGE ( 'NONE', *, *, #140, .T. ) ;
#31 = AXIS2_PLACEMENT_3D ( 'NONE', #123, #251, #216 ) ;
#32 = DIRECTION ( 'NONE',  ( -0.000000000000000000, -0.000000000000000000, -1.000000000000000000 ) ) ;
#33 = CC_DESIGN_APPROVAL ( #196, ( #57 ) ) ;
#34 = PERSON_AND_ORGANIZATION ( #122, #141 ) ;
#35 = DIRECTION ( 'NONE',  ( 1.000000000000000000, 0.000000000000000000, 0.000000000000000000 ) ) ;
#36 = PLANE ( 'NONE',  #31 ) ;
#37 = ADVANCED_FACE ( 'NONE', ( #49 ), #246, .T. ) ;
#38 = DIRECTION ( 'NONE',  ( 1.000000000000000000, 0.000000000000000000, -0.000000000000000000 ) ) ;
#39 = DIRECTION ( 'NONE',  ( -1.000000000000000000, 0.000000000000000000, 0.000000000000000000 ) ) ;
#40 = DIRECTION ( 'NONE',  ( -0.000000000000000000, -0.000000000000000000, -1.000000000000000000 ) ) ;
#41 = EDGE_LOOP ( 'NONE', ( #129, #205 ) ) ;
#42 = DIRECTION ( 'NONE',  ( 0.000000000000000000, 0.000000000000000000, 1.000000000000000000 ) ) ;
#43 = ORIENTED_EDGE ( 'NONE', *, *, #108, .F. ) ;
#44 =( NAMED_UNIT ( * ) SI_UNIT ( $, .STERADIAN. ) SOLID_ANGLE_UNIT ( ) );
#45 = VERTEX_POINT ( 'NONE', #162 ) ;
#46 = ORIENTED_EDGE ( 'NONE', *, *, #231, .T. ) ;
#47 = PERSON_AND_ORGANIZATION ( #122, #141 ) ;
#48 = DATE_AND_TIME ( #227, #107 ) ;
#49 = FACE_OUTER_BOUND ( 'NONE', #221, .T. ) ;
#50 = DATE_TIME_ROLE ( 'creation_date' ) ;
#51 = CC_DESIGN_PERSON_AND_ORGANIZATION_ASSIGNMENT ( #121, #96, ( #73 ) ) ;
#52 = DIRECTION ( 'NONE',  ( -0.000000000000000000, -0.000000000000000000, -1.000000000000000000 ) ) ;
#53 = CARTESIAN_POINT ( 'NONE',  ( 0.000000000000000000, 0.000000000000000000, 3.000000000000000000 ) ) ;
#54 = PERSON_AND_ORGANIZATION ( #122, #141 ) ;
#55 = VECTOR ( 'NONE', #52, 1000.000000000000000 ) ;
#56 = DIRECTION ( 'NONE',  ( -0.000000000000000000, -0.000000000000000000, -1.000000000000000000 ) ) ;
#57 = PRODUCT_DEFINITION ( 'NEZNÁMÝ', '', #253, #235 ) ;
#58 = FACE_OUTER_BOUND ( 'NONE', #21, .T. ) ;
#59 = EDGE_LOOP ( 'NONE', ( #89, #223, #168, #149 ) ) ;
#60 = UNCERTAINTY_MEASURE_WITH_UNIT (LENGTH_MEASURE( 1.000000000000000082E-05 ), #2, 'distance_accuracy_value', 'NONE');
#61 = LINE ( 'NONE', #103, #116 ) ;
#62 = ORIENTED_EDGE ( 'NONE', *, *, #236, .T. ) ;
#63 = CLOSED_SHELL ( 'NONE', ( #93, #14, #37, #170, #22, #201, #133 ) ) ;
#64 = VERTEX_POINT ( 'NONE', #120 ) ;
#65 = ORIENTED_EDGE ( 'NONE', *, *, #124, .F. ) ;
#66 = EDGE_LOOP ( 'NONE', ( #209, #25 ) ) ;
#67 = PERSON_AND_ORGANIZATION_ROLE ( 'design_owner' ) ;
#68 = CARTESIAN_POINT ( 'NONE',  ( 0.000000000000000000, 0.000000000000000000, 0.000000000000000000 ) ) ;
#69 = EDGE_CURVE ( 'NONE', #167, #219, #131, .T. ) ;
#70 = CARTESIAN_POINT ( 'NONE',  ( -1.500000000000000222, 0.000000000000000000, 500.0000000000000000 ) ) ;
#71 = PERSON_AND_ORGANIZATION ( #122, #141 ) ;
#72 = CARTESIAN_POINT ( 'NONE',  ( 0.000000000000000000, 0.000000000000000000, 3.000000000000000000 ) ) ;
#73 = SECURITY_CLASSIFICATION ( '', '', #117 ) ;
#74 = APPROVAL_ROLE ( '' ) ;
#75 = DIRECTION ( 'NONE',  ( 0.000000000000000000, 0.000000000000000000, 1.000000000000000000 ) ) ;
#76 = DIRECTION ( 'NONE',  ( 0.000000000000000000, 0.000000000000000000, 1.000000000000000000 ) ) ;
#77 = CYLINDRICAL_SURFACE ( 'NONE', #87, 1.500000000000000222 ) ;
#78 = CALENDAR_DATE ( 2023, 13, 2 ) ;
#79 = DIRECTION ( 'NONE',  ( -0.000000000000000000, -0.000000000000000000, -1.000000000000000000 ) ) ;
#80 = ORIENTED_EDGE ( 'NONE', *, *, #140, .F. ) ;
#81 = CIRCLE ( 'NONE', #26, 3.000000000000000444 ) ;
#82 = DIRECTION ( 'NONE',  ( 1.000000000000000000, 0.000000000000000000, -0.000000000000000000 ) ) ;
#83 = DIRECTION ( 'NONE',  ( 1.000000000000000000, 0.000000000000000000, 0.000000000000000000 ) ) ;
#84 = APPLICATION_CONTEXT ( 'configuration controlled 3d designs of mechanical parts and assemblies' ) ;
#85 = CARTESIAN_POINT ( 'NONE',  ( 0.000000000000000000, 0.000000000000000000, 3.000000000000000000 ) ) ;
#86 = DIRECTION ( 'NONE',  ( -0.000000000000000000, -0.000000000000000000, -1.000000000000000000 ) ) ;
#87 = AXIS2_PLACEMENT_3D ( 'NONE', #234, #56, #39 ) ;
#88 = CARTESIAN_POINT ( 'NONE',  ( -1.500000000000000222, 0.000000000000000000, 3.000000000000000000 ) ) ;
#89 = ORIENTED_EDGE ( 'NONE', *, *, #231, .F. ) ;
#90 = AXIS2_PLACEMENT_3D ( 'NONE', #53, #195, #210 ) ;
#91 = DATE_AND_TIME ( #174, #19 ) ;
#92 = CIRCLE ( 'NONE', #225, 1.500000000000000222 ) ;
#93 = ADVANCED_FACE ( 'NONE', ( #13 ), #10, .T. ) ;
#94 = APPLICATION_PROTOCOL_DEFINITION ( 'international standard', 'config_control_design', 1994, #84 ) ;
#95 = DIRECTION ( 'NONE',  ( 1.000000000000000000, 0.000000000000000000, 0.000000000000000000 ) ) ;
#96 = PERSON_AND_ORGANIZATION_ROLE ( 'classification_officer' ) ;
#97 = CARTESIAN_POINT ( 'NONE',  ( 0.000000000000000000, 0.000000000000000000, 500.0000000000000000 ) ) ;
#98 = EDGE_CURVE ( 'NONE', #5, #45, #215, .T. ) ;
#99 = COORDINATED_UNIVERSAL_TIME_OFFSET ( 1, 0, .AHEAD. ) ;
#100 = FACE_OUTER_BOUND ( 'NONE', #66, .T. ) ;
#101 = ADVANCED_BREP_SHAPE_REPRESENTATION ( 'bab3', ( #203, #189 ), #222 ) ;
#102 = LOCAL_TIME ( 17, 26, 17.00000000000000000, #139 ) ;
#103 = CARTESIAN_POINT ( 'NONE',  ( -1.500000000000000222, 0.000000000000000000, 500.0000000000000000 ) ) ;
#104 = CARTESIAN_POINT ( 'NONE',  ( 1.500000000000000222, 1.836970198721029934E-16, 500.0000000000000000 ) ) ;
#105 = CC_DESIGN_DATE_AND_TIME_ASSIGNMENT ( #177, #50, ( #57 ) ) ;
#106 = ORIENTED_EDGE ( 'NONE', *, *, #69, .T. ) ;
#107 = LOCAL_TIME ( 17, 26, 17.00000000000000000, #114 ) ;
#108 = EDGE_CURVE ( 'NONE', #155, #109, #18, .T. ) ;
#109 = VERTEX_POINT ( 'NONE', #70 ) ;
#110 = AXIS2_PLACEMENT_3D ( 'NONE', #72, #137, #197 ) ;
#111 = ORIENTED_EDGE ( 'NONE', *, *, #213, .T. ) ;
#112 = APPLICATION_PROTOCOL_DEFINITION ( 'international standard', 'config_control_design', 1994, #154 ) ;
#113 = DIRECTION ( 'NONE',  ( 0.000000000000000000, 0.000000000000000000, 1.000000000000000000 ) ) ;
#114 = COORDINATED_UNIVERSAL_TIME_OFFSET ( 1, 0, .AHEAD. ) ;
#115 = DIRECTION ( 'NONE',  ( 0.000000000000000000, 0.000000000000000000, 1.000000000000000000 ) ) ;
#116 = VECTOR ( 'NONE', #79, 1000.000000000000000 ) ;
#117 = SECURITY_CLASSIFICATION_LEVEL ( 'unclassified' ) ;
#118 = DIRECTION ( 'NONE',  ( -1.000000000000000000, 0.000000000000000000, 0.000000000000000000 ) ) ;
#119 = PERSON_AND_ORGANIZATION_ROLE ( 'creator' ) ;
#120 = CARTESIAN_POINT ( 'NONE',  ( -3.000000000000000444, 0.000000000000000000, 0.000000000000000000 ) ) ;
#121 = PERSON_AND_ORGANIZATION ( #122, #141 ) ;
#122 = PERSON ( 'NEURÈENÝ', 'NEURÈENÝ', 'NEURÈENÝ', ('NEURÈENÝ'), ('NEURÈENÝ'), ('NEURÈENÝ') ) ;
#123 = CARTESIAN_POINT ( 'NONE',  ( 0.000000000000000000, 0.000000000000000000, 0.000000000000000000 ) ) ;
#124 = EDGE_CURVE ( 'NONE', #167, #64, #161, .T. ) ;
#125 = LOCAL_TIME ( 17, 26, 17.00000000000000000, #99 ) ;
#126 = SHAPE_DEFINITION_REPRESENTATION ( #138, #101 ) ;
#127 = APPROVAL_PERSON_ORGANIZATION ( #71, #179, #199 ) ;
#128 = CARTESIAN_POINT ( 'NONE',  ( 3.000000000000000444, 3.673940397442060361E-16, 3.000000000000000000 ) ) ;
#129 = ORIENTED_EDGE ( 'NONE', *, *, #98, .F. ) ;
#130 = ORIENTED_EDGE ( 'NONE', *, *, #27, .F. ) ;
#131 = CIRCLE ( 'NONE', #90, 3.000000000000000444 ) ;
#132 = VECTOR ( 'NONE', #86, 1000.000000000000000 ) ;
#133 = ADVANCED_FACE ( 'NONE', ( #100 ), #211, .T. ) ;
#134 = APPROVAL_ROLE ( '' ) ;
#135 = ORIENTED_EDGE ( 'NONE', *, *, #69, .F. ) ;
#136 = DATE_AND_TIME ( #232, #125 ) ;
#137 = DIRECTION ( 'NONE',  ( -0.000000000000000000, -0.000000000000000000, -1.000000000000000000 ) ) ;
#138 = PRODUCT_DEFINITION_SHAPE ( 'NONE', 'NONE',  #57 ) ;
#139 = COORDINATED_UNIVERSAL_TIME_OFFSET ( 1, 0, .AHEAD. ) ;
#140 = EDGE_CURVE ( 'NONE', #219, #153, #198, .T. ) ;
#141 = ORGANIZATION ( 'NEURÈENÝ', 'NEURÈENÝ', '' ) ;
#142 = DIRECTION ( 'NONE',  ( 0.000000000000000000, 0.000000000000000000, 1.000000000000000000 ) ) ;
#143 = AXIS2_PLACEMENT_3D ( 'NONE', #250, #115, #228 ) ;
#144 = DIRECTION ( 'NONE',  ( 0.000000000000000000, 0.000000000000000000, 1.000000000000000000 ) ) ;
#145 = APPROVAL_DATE_TIME ( #165, #179 ) ;
#146 = PLANE ( 'NONE',  #239 ) ;
#147 = EDGE_CURVE ( 'NONE', #109, #155, #92, .T. ) ;
#148 = CARTESIAN_POINT ( 'NONE',  ( 3.000000000000000444, 3.673940397442060361E-16, 3.000000000000000000 ) ) ;
#149 = ORIENTED_EDGE ( 'NONE', *, *, #98, .T. ) ;
#150 = CARTESIAN_POINT ( 'NONE',  ( -3.000000000000000444, 0.000000000000000000, 3.000000000000000000 ) ) ;
#151 = CARTESIAN_POINT ( 'NONE',  ( 0.000000000000000000, 0.000000000000000000, 3.000000000000000000 ) ) ;
#152 = CC_DESIGN_DATE_AND_TIME_ASSIGNMENT ( #91, #172, ( #73 ) ) ;
#153 = VERTEX_POINT ( 'NONE', #164 ) ;
#154 = APPLICATION_CONTEXT ( 'configuration controlled 3d designs of mechanical parts and assemblies' ) ;
#155 = VERTEX_POINT ( 'NONE', #104 ) ;
#156 = ORIENTED_EDGE ( 'NONE', *, *, #236, .F. ) ;
#157 = CC_DESIGN_PERSON_AND_ORGANIZATION_ASSIGNMENT ( #12, #119, ( #57 ) ) ;
#158 = EDGE_CURVE ( 'NONE', #109, #5, #61, .T. ) ;
#159 = AXIS2_PLACEMENT_3D ( 'NONE', #85, #244, #192 ) ;
#160 = CARTESIAN_POINT ( 'NONE',  ( 0.000000000000000000, 0.000000000000000000, 0.000000000000000000 ) ) ;
#161 = LINE ( 'NONE', #233, #55 ) ;
#162 = CARTESIAN_POINT ( 'NONE',  ( 1.500000000000000222, 1.836970198721029934E-16, 3.000000000000000000 ) ) ;
#163 = AXIS2_PLACEMENT_3D ( 'NONE', #176, #32, #118 ) ;
#164 = CARTESIAN_POINT ( 'NONE',  ( 3.000000000000000444, 3.673940397442060361E-16, 0.000000000000000000 ) ) ;
#165 = DATE_AND_TIME ( #78, #180 ) ;
#166 = FACE_BOUND ( 'NONE', #41, .T. ) ;
#167 = VERTEX_POINT ( 'NONE', #150 ) ;
#168 = ORIENTED_EDGE ( 'NONE', *, *, #158, .T. ) ;
#169 = CIRCLE ( 'NONE', #230, 3.000000000000000444 ) ;
#170 = ADVANCED_FACE ( 'NONE', ( #166, #58 ), #146, .T. ) ;
#171 = AXIS2_PLACEMENT_3D ( 'NONE', #97, #75, #95 ) ;
#172 = DATE_TIME_ROLE ( 'classification_date' ) ;
#173 = APPROVAL_STATUS ( 'not_yet_approved' ) ;
#174 = CALENDAR_DATE ( 2023, 13, 2 ) ;
#175 = APPROVAL_DATE_TIME ( #48, #196 ) ;
#176 = CARTESIAN_POINT ( 'NONE',  ( 0.000000000000000000, 0.000000000000000000, 500.0000000000000000 ) ) ;
#177 = DATE_AND_TIME ( #8, #102 ) ;
#178 = CARTESIAN_POINT ( 'NONE',  ( 0.000000000000000000, 0.000000000000000000, 500.0000000000000000 ) ) ;
#179 = APPROVAL ( #182, 'NEURÈENÝ' ) ;
#180 = LOCAL_TIME ( 17, 26, 17.00000000000000000, #252 ) ;
#181 = PRODUCT_RELATED_PRODUCT_CATEGORY ( 'detail', '', ( #243 ) ) ;
#182 = APPROVAL_STATUS ( 'not_yet_approved' ) ;
#183 = APPROVAL_PERSON_ORGANIZATION ( #226, #196, #134 ) ;
#184 = CARTESIAN_POINT ( 'NONE',  ( 1.500000000000000222, 1.836970198721029934E-16, 500.0000000000000000 ) ) ;
#185 = CARTESIAN_POINT ( 'NONE',  ( 0.000000000000000000, 0.000000000000000000, 3.000000000000000000 ) ) ;
#186 = FACE_OUTER_BOUND ( 'NONE', #207, .T. ) ;
#187 =( NAMED_UNIT ( * ) PLANE_ANGLE_UNIT ( ) SI_UNIT ( $, .RADIAN. ) );
#188 = CIRCLE ( 'NONE', #217, 3.000000000000000444 ) ;
#189 = AXIS2_PLACEMENT_3D ( 'NONE', #160, #142, #212 ) ;
#190 = APPROVAL_DATE_TIME ( #136, #193 ) ;
#191 = AXIS2_PLACEMENT_3D ( 'NONE', #178, #76, #82 ) ;
#192 = DIRECTION ( 'NONE',  ( -1.000000000000000000, 0.000000000000000000, 0.000000000000000000 ) ) ;
#193 = APPROVAL ( #249, 'NEURÈENÝ' ) ;
#194 = PERSON_AND_ORGANIZATION_ROLE ( 'creator' ) ;
#195 = DIRECTION ( 'NONE',  ( 0.000000000000000000, 0.000000000000000000, 1.000000000000000000 ) ) ;
#196 = APPROVAL ( #173, 'NEURÈENÝ' ) ;
#197 = DIRECTION ( 'NONE',  ( -1.000000000000000000, 0.000000000000000000, 0.000000000000000000 ) ) ;
#198 = LINE ( 'NONE', #148, #206 ) ;
#199 = APPROVAL_ROLE ( '' ) ;
#200 = CARTESIAN_POINT ( 'NONE',  ( 0.000000000000000000, 0.000000000000000000, 3.000000000000000000 ) ) ;
#201 = ADVANCED_FACE ( 'NONE', ( #16 ), #77, .T. ) ;
#202 = LINE ( 'NONE', #184, #132 ) ;
#203 = MANIFOLD_SOLID_BREP ( 'Pøidat vysunutím3', #63 ) ;
#204 = DIRECTION ( 'NONE',  ( 1.000000000000000000, 0.000000000000000000, 0.000000000000000000 ) ) ;
#205 = ORIENTED_EDGE ( 'NONE', *, *, #7, .F. ) ;
#206 = VECTOR ( 'NONE', #40, 1000.000000000000000 ) ;
#207 = EDGE_LOOP ( 'NONE', ( #3, #30, #62, #65 ) ) ;
#208 = PERSON_AND_ORGANIZATION_ROLE ( 'design_supplier' ) ;
#209 = ORIENTED_EDGE ( 'NONE', *, *, #147, .T. ) ;
#210 = DIRECTION ( 'NONE',  ( 1.000000000000000000, 0.000000000000000000, 0.000000000000000000 ) ) ;
#211 = PLANE ( 'NONE',  #191 ) ;
#212 = DIRECTION ( 'NONE',  ( 1.000000000000000000, 0.000000000000000000, 0.000000000000000000 ) ) ;
#213 = EDGE_CURVE ( 'NONE', #219, #167, #81, .T. ) ;
#214 = PERSON_AND_ORGANIZATION ( #122, #141 ) ;
#215 = CIRCLE ( 'NONE', #143, 1.500000000000000222 ) ;
#216 = DIRECTION ( 'NONE',  ( 1.000000000000000000, 0.000000000000000000, -0.000000000000000000 ) ) ;
#217 = AXIS2_PLACEMENT_3D ( 'NONE', #68, #113, #35 ) ;
#218 = CC_DESIGN_APPROVAL ( #179, ( #73 ) ) ;
#219 = VERTEX_POINT ( 'NONE', #128 ) ;
#220 = EDGE_LOOP ( 'NONE', ( #43, #46, #17, #224 ) ) ;
#221 = EDGE_LOOP ( 'NONE', ( #80, #135, #28, #240 ) ) ;
#222 =( GEOMETRIC_REPRESENTATION_CONTEXT ( 3 ) GLOBAL_UNCERTAINTY_ASSIGNED_CONTEXT ( ( #60 ) ) GLOBAL_UNIT_ASSIGNED_CONTEXT ( ( #2, #187, #44 ) ) REPRESENTATION_CONTEXT ( 'NONE', 'WORKASPACE' ) );
#223 = ORIENTED_EDGE ( 'NONE', *, *, #147, .F. ) ;
#224 = ORIENTED_EDGE ( 'NONE', *, *, #158, .F. ) ;
#225 = AXIS2_PLACEMENT_3D ( 'NONE', #254, #242, #237 ) ;
#226 = PERSON_AND_ORGANIZATION ( #122, #141 ) ;
#227 = CALENDAR_DATE ( 2023, 13, 2 ) ;
#228 = DIRECTION ( 'NONE',  ( 1.000000000000000000, 0.000000000000000000, 0.000000000000000000 ) ) ;
#229 = CIRCLE ( 'NONE', #238, 1.500000000000000222 ) ;
#230 = AXIS2_PLACEMENT_3D ( 'NONE', #245, #20, #204 ) ;
#231 = EDGE_CURVE ( 'NONE', #155, #45, #202, .T. ) ;
#232 = CALENDAR_DATE ( 2023, 13, 2 ) ;
#233 = CARTESIAN_POINT ( 'NONE',  ( -3.000000000000000444, 0.000000000000000000, 3.000000000000000000 ) ) ;
#234 = CARTESIAN_POINT ( 'NONE',  ( 0.000000000000000000, 0.000000000000000000, 500.0000000000000000 ) ) ;
#235 = DESIGN_CONTEXT ( 'detailed design', #84, 'design' ) ;
#236 = EDGE_CURVE ( 'NONE', #153, #64, #169, .T. ) ;
#237 = DIRECTION ( 'NONE',  ( 1.000000000000000000, 0.000000000000000000, 0.000000000000000000 ) ) ;
#238 = AXIS2_PLACEMENT_3D ( 'NONE', #185, #255, #83 ) ;
#239 = AXIS2_PLACEMENT_3D ( 'NONE', #200, #144, #38 ) ;
#240 = ORIENTED_EDGE ( 'NONE', *, *, #27, .T. ) ;
#241 = CC_DESIGN_PERSON_AND_ORGANIZATION_ASSIGNMENT ( #214, #67, ( #243 ) ) ;
#242 = DIRECTION ( 'NONE',  ( 0.000000000000000000, 0.000000000000000000, 1.000000000000000000 ) ) ;
#243 = PRODUCT ( 'bab3', 'bab3', '', ( #248 ) ) ;
#244 = DIRECTION ( 'NONE',  ( -0.000000000000000000, -0.000000000000000000, -1.000000000000000000 ) ) ;
#245 = CARTESIAN_POINT ( 'NONE',  ( 0.000000000000000000, 0.000000000000000000, 0.000000000000000000 ) ) ;
#246 = CYLINDRICAL_SURFACE ( 'NONE', #110, 3.000000000000000444 ) ;
#247 = CC_DESIGN_PERSON_AND_ORGANIZATION_ASSIGNMENT ( #47, #194, ( #253 ) ) ;
#248 = MECHANICAL_CONTEXT ( 'NONE', #154, 'mechanical' ) ;
#249 = APPROVAL_STATUS ( 'not_yet_approved' ) ;
#250 = CARTESIAN_POINT ( 'NONE',  ( 0.000000000000000000, 0.000000000000000000, 3.000000000000000000 ) ) ;
#251 = DIRECTION ( 'NONE',  ( 0.000000000000000000, 0.000000000000000000, 1.000000000000000000 ) ) ;
#252 = COORDINATED_UNIVERSAL_TIME_OFFSET ( 1, 0, .AHEAD. ) ;
#253 = PRODUCT_DEFINITION_FORMATION_WITH_SPECIFIED_SOURCE ( 'LIBOVOLNÝ', '', #243, .NOT_KNOWN. ) ;
#254 = CARTESIAN_POINT ( 'NONE',  ( 0.000000000000000000, 0.000000000000000000, 500.0000000000000000 ) ) ;
#255 = DIRECTION ( 'NONE',  ( 0.000000000000000000, 0.000000000000000000, 1.000000000000000000 ) ) ;
ENDSEC;
END-ISO-10303-21;
