ISO-10303-21;
HEADER;
FILE_DESCRIPTION (( 'STEP AP203' ),
    '1' );
FILE_NAME ('bb74.STEP',
    '2023-02-13T13:52:01',
    ( '' ),
    ( '' ),
    'SwSTEP 2.0',
    'SolidWorks 2019',
    '' );
FILE_SCHEMA (( 'CONFIG_CONTROL_DESIGN' ));
ENDSEC;

DATA;
#1 = CC_DESIGN_DATE_AND_TIME_ASSIGNMENT ( #103, #6, ( #26 ) ) ;
#2 = DIRECTION ( 'NONE',  ( 0.000000000000000000, 0.000000000000000000, 1.000000000000000000 ) ) ;
#3 = CIRCLE ( 'NONE', #106, 7.000000000000000000 ) ;
#4 = DIRECTION ( 'NONE',  ( -1.000000000000000000, 0.000000000000000000, 0.000000000000000000 ) ) ;
#5 = CC_DESIGN_APPROVAL ( #52, ( #26 ) ) ;
#6 = DATE_TIME_ROLE ( 'creation_date' ) ;
#7 = EDGE_CURVE ( 'NONE', #254, #228, #216, .T. ) ;
#8 = CARTESIAN_POINT ( 'NONE',  ( 7.000000000000000000, 8.572527594031473190E-16, 5.000000000000000000 ) ) ;
#9 = VERTEX_POINT ( 'NONE', #98 ) ;
#10 = CARTESIAN_POINT ( 'NONE',  ( 4.500000000000000000, 5.510910596163088569E-16, 5.000000000000000000 ) ) ;
#11 = DATE_AND_TIME ( #172, #171 ) ;
#12 = PERSON_AND_ORGANIZATION_ROLE ( 'creator' ) ;
#13 = CARTESIAN_POINT ( 'NONE',  ( -7.000000000000000000, 0.000000000000000000, 5.000000000000000000 ) ) ;
#14 = CIRCLE ( 'NONE', #123, 4.500000000000000000 ) ;
#15 = LINE ( 'NONE', #13, #42 ) ;
#16 = APPLICATION_CONTEXT ( 'configuration controlled 3d designs of mechanical parts and assemblies' ) ;
#17 = ORIENTED_EDGE ( 'NONE', *, *, #84, .F. ) ;
#18 = PERSON_AND_ORGANIZATION ( #243, #210 ) ;
#19 = ADVANCED_FACE ( 'NONE', ( #81 ), #74, .T. ) ;
#20 = PERSON_AND_ORGANIZATION_ROLE ( 'design_supplier' ) ;
#21 = VERTEX_POINT ( 'NONE', #58 ) ;
#22 = UNCERTAINTY_MEASURE_WITH_UNIT (LENGTH_MEASURE( 1.000000000000000082E-05 ), #69, 'distance_accuracy_value', 'NONE');
#23 = ORIENTED_EDGE ( 'NONE', *, *, #75, .T. ) ;
#24 = APPROVAL_STATUS ( 'not_yet_approved' ) ;
#25 = PERSON_AND_ORGANIZATION ( #243, #210 ) ;
#26 = PRODUCT_DEFINITION ( 'NEZNÁMÝ', '', #169, #94 ) ;
#27 = DATE_AND_TIME ( #97, #159 ) ;
#28 = DATE_AND_TIME ( #34, #144 ) ;
#29 = APPROVAL_PERSON_ORGANIZATION ( #194, #52, #236 ) ;
#30 = CIRCLE ( 'NONE', #54, 7.000000000000000000 ) ;
#31 = ORIENTED_EDGE ( 'NONE', *, *, #116, .F. ) ;
#32 = CARTESIAN_POINT ( 'NONE',  ( 4.500000000000000000, 5.510910596163088569E-16, 125.0000000000000000 ) ) ;
#33 = DIRECTION ( 'NONE',  ( -1.000000000000000000, 0.000000000000000000, 0.000000000000000000 ) ) ;
#34 = CALENDAR_DATE ( 2023, 13, 2 ) ;
#35 = CARTESIAN_POINT ( 'NONE',  ( 0.000000000000000000, 0.000000000000000000, 5.000000000000000000 ) ) ;
#36 = CARTESIAN_POINT ( 'NONE',  ( 0.000000000000000000, 0.000000000000000000, 0.000000000000000000 ) ) ;
#37 = LINE ( 'NONE', #113, #173 ) ;
#38 = DATE_TIME_ROLE ( 'classification_date' ) ;
#39 = APPROVAL_ROLE ( '' ) ;
#40 = PRODUCT_RELATED_PRODUCT_CATEGORY ( 'detail', '', ( #130 ) ) ;
#41 =( GEOMETRIC_REPRESENTATION_CONTEXT ( 3 ) GLOBAL_UNCERTAINTY_ASSIGNED_CONTEXT ( ( #22 ) ) GLOBAL_UNIT_ASSIGNED_CONTEXT ( ( #69, #67, #46 ) ) REPRESENTATION_CONTEXT ( 'NONE', 'WORKASPACE' ) );
#42 = VECTOR ( 'NONE', #153, 1000.000000000000000 ) ;
#43 = EDGE_LOOP ( 'NONE', ( #188, #165 ) ) ;
#44 = CALENDAR_DATE ( 2023, 13, 2 ) ;
#45 = SECURITY_CLASSIFICATION_LEVEL ( 'unclassified' ) ;
#46 =( NAMED_UNIT ( * ) SI_UNIT ( $, .STERADIAN. ) SOLID_ANGLE_UNIT ( ) );
#47 = ORIENTED_EDGE ( 'NONE', *, *, #96, .T. ) ;
#48 = APPLICATION_PROTOCOL_DEFINITION ( 'international standard', 'config_control_design', 1994, #166 ) ;
#49 = LINE ( 'NONE', #8, #201 ) ;
#50 = CARTESIAN_POINT ( 'NONE',  ( -7.000000000000000000, 0.000000000000000000, 5.000000000000000000 ) ) ;
#51 = ORIENTED_EDGE ( 'NONE', *, *, #84, .T. ) ;
#52 = APPROVAL ( #24, 'NEURÈENÝ' ) ;
#53 = DIRECTION ( 'NONE',  ( -0.000000000000000000, -0.000000000000000000, -1.000000000000000000 ) ) ;
#54 = AXIS2_PLACEMENT_3D ( 'NONE', #204, #170, #112 ) ;
#55 = FACE_OUTER_BOUND ( 'NONE', #87, .T. ) ;
#56 = CARTESIAN_POINT ( 'NONE',  ( -4.500000000000000000, 0.000000000000000000, 125.0000000000000000 ) ) ;
#57 = EDGE_CURVE ( 'NONE', #198, #21, #14, .T. ) ;
#58 = CARTESIAN_POINT ( 'NONE',  ( -4.500000000000000000, 0.000000000000000000, 5.000000000000000000 ) ) ;
#59 = DIRECTION ( 'NONE',  ( -0.000000000000000000, -0.000000000000000000, -1.000000000000000000 ) ) ;
#60 = EDGE_CURVE ( 'NONE', #21, #198, #100, .T. ) ;
#61 = ORIENTED_EDGE ( 'NONE', *, *, #192, .T. ) ;
#62 = ORIENTED_EDGE ( 'NONE', *, *, #150, .F. ) ;
#63 = COORDINATED_UNIVERSAL_TIME_OFFSET ( 1, 0, .AHEAD. ) ;
#64 = AXIS2_PLACEMENT_3D ( 'NONE', #82, #208, #117 ) ;
#65 = EDGE_LOOP ( 'NONE', ( #104, #101 ) ) ;
#66 = ORIENTED_EDGE ( 'NONE', *, *, #60, .T. ) ;
#67 =( NAMED_UNIT ( * ) PLANE_ANGLE_UNIT ( ) SI_UNIT ( $, .RADIAN. ) );
#68 = FACE_OUTER_BOUND ( 'NONE', #108, .T. ) ;
#69 =( LENGTH_UNIT ( ) NAMED_UNIT ( * ) SI_UNIT ( .MILLI., .METRE. ) );
#70 = FACE_OUTER_BOUND ( 'NONE', #136, .T. ) ;
#71 = DIRECTION ( 'NONE',  ( 0.000000000000000000, 0.000000000000000000, 1.000000000000000000 ) ) ;
#72 = APPROVAL_STATUS ( 'not_yet_approved' ) ;
#73 = PLANE ( 'NONE',  #129 ) ;
#74 = CYLINDRICAL_SURFACE ( 'NONE', #179, 4.500000000000000000 ) ;
#75 = EDGE_CURVE ( 'NONE', #228, #187, #15, .T. ) ;
#76 = DIRECTION ( 'NONE',  ( 0.000000000000000000, 0.000000000000000000, 1.000000000000000000 ) ) ;
#77 = DIRECTION ( 'NONE',  ( 0.000000000000000000, 0.000000000000000000, 1.000000000000000000 ) ) ;
#78 = AXIS2_PLACEMENT_3D ( 'NONE', #245, #238, #233 ) ;
#79 = CIRCLE ( 'NONE', #115, 4.500000000000000000 ) ;
#80 = SHAPE_DEFINITION_REPRESENTATION ( #155, #193 ) ;
#81 = FACE_OUTER_BOUND ( 'NONE', #142, .T. ) ;
#82 = CARTESIAN_POINT ( 'NONE',  ( 0.000000000000000000, 0.000000000000000000, 5.000000000000000000 ) ) ;
#83 = ORIENTED_EDGE ( 'NONE', *, *, #75, .F. ) ;
#84 = EDGE_CURVE ( 'NONE', #9, #21, #250, .T. ) ;
#85 = ORIENTED_EDGE ( 'NONE', *, *, #96, .F. ) ;
#86 = CARTESIAN_POINT ( 'NONE',  ( 0.000000000000000000, 0.000000000000000000, 0.000000000000000000 ) ) ;
#87 = EDGE_LOOP ( 'NONE', ( #211, #220, #47, #83 ) ) ;
#88 = DIRECTION ( 'NONE',  ( 1.000000000000000000, 0.000000000000000000, 0.000000000000000000 ) ) ;
#89 = VERTEX_POINT ( 'NONE', #32 ) ;
#90 = APPROVAL ( #114, 'NEURÈENÝ' ) ;
#91 = APPROVAL_ROLE ( '' ) ;
#92 = DIRECTION ( 'NONE',  ( 0.000000000000000000, 0.000000000000000000, 1.000000000000000000 ) ) ;
#93 = CARTESIAN_POINT ( 'NONE',  ( -7.000000000000000000, 0.000000000000000000, 0.000000000000000000 ) ) ;
#94 = DESIGN_CONTEXT ( 'detailed design', #16, 'design' ) ;
#95 = EDGE_CURVE ( 'NONE', #9, #89, #79, .T. ) ;
#96 = EDGE_CURVE ( 'NONE', #122, #187, #175, .T. ) ;
#97 = CALENDAR_DATE ( 2023, 13, 2 ) ;
#98 = CARTESIAN_POINT ( 'NONE',  ( -4.500000000000000000, 0.000000000000000000, 125.0000000000000000 ) ) ;
#99 = ADVANCED_FACE ( 'NONE', ( #226, #132 ), #253, .T. ) ;
#100 = CIRCLE ( 'NONE', #186, 4.500000000000000000 ) ;
#101 = ORIENTED_EDGE ( 'NONE', *, *, #57, .F. ) ;
#102 = LOCAL_TIME ( 14, 52, 1.000000000000000000, #110 ) ;
#103 = DATE_AND_TIME ( #203, #102 ) ;
#104 = ORIENTED_EDGE ( 'NONE', *, *, #60, .F. ) ;
#105 = CARTESIAN_POINT ( 'NONE',  ( 0.000000000000000000, 0.000000000000000000, 125.0000000000000000 ) ) ;
#106 = AXIS2_PLACEMENT_3D ( 'NONE', #164, #71, #143 ) ;
#107 = DIRECTION ( 'NONE',  ( 0.000000000000000000, 0.000000000000000000, 1.000000000000000000 ) ) ;
#108 = EDGE_LOOP ( 'NONE', ( #62, #239, #185, #17 ) ) ;
#109 = COORDINATED_UNIVERSAL_TIME_OFFSET ( 1, 0, .AHEAD. ) ;
#110 = COORDINATED_UNIVERSAL_TIME_OFFSET ( 1, 0, .AHEAD. ) ;
#111 = DIRECTION ( 'NONE',  ( -1.000000000000000000, 0.000000000000000000, 0.000000000000000000 ) ) ;
#112 = DIRECTION ( 'NONE',  ( 1.000000000000000000, 0.000000000000000000, 0.000000000000000000 ) ) ;
#113 = CARTESIAN_POINT ( 'NONE',  ( 4.500000000000000000, 5.510910596163088569E-16, 125.0000000000000000 ) ) ;
#114 = APPROVAL_STATUS ( 'not_yet_approved' ) ;
#115 = AXIS2_PLACEMENT_3D ( 'NONE', #212, #2, #251 ) ;
#116 = EDGE_CURVE ( 'NONE', #254, #122, #49, .T. ) ;
#117 = DIRECTION ( 'NONE',  ( 1.000000000000000000, 0.000000000000000000, -0.000000000000000000 ) ) ;
#118 = EDGE_LOOP ( 'NONE', ( #31, #252, #23, #61 ) ) ;
#119 = AXIS2_PLACEMENT_3D ( 'NONE', #221, #183, #4 ) ;
#120 = PERSON_AND_ORGANIZATION ( #243, #210 ) ;
#121 = PERSON_AND_ORGANIZATION ( #243, #210 ) ;
#122 = VERTEX_POINT ( 'NONE', #213 ) ;
#123 = AXIS2_PLACEMENT_3D ( 'NONE', #35, #77, #152 ) ;
#124 = CARTESIAN_POINT ( 'NONE',  ( 0.000000000000000000, 0.000000000000000000, 5.000000000000000000 ) ) ;
#125 = ADVANCED_FACE ( 'NONE', ( #68 ), #218, .T. ) ;
#126 = CC_DESIGN_APPROVAL ( #90, ( #231 ) ) ;
#127 = CC_DESIGN_DATE_AND_TIME_ASSIGNMENT ( #27, #38, ( #231 ) ) ;
#128 = CARTESIAN_POINT ( 'NONE',  ( 0.000000000000000000, 0.000000000000000000, 5.000000000000000000 ) ) ;
#129 = AXIS2_PLACEMENT_3D ( 'NONE', #105, #145, #235 ) ;
#130 = PRODUCT ( 'bb74', 'bb74', '', ( #232 ) ) ;
#131 = EDGE_CURVE ( 'NONE', #228, #254, #3, .T. ) ;
#132 = FACE_OUTER_BOUND ( 'NONE', #43, .T. ) ;
#133 = APPLICATION_PROTOCOL_DEFINITION ( 'international standard', 'config_control_design', 1994, #16 ) ;
#134 = APPROVAL_PERSON_ORGANIZATION ( #237, #177, #91 ) ;
#135 = DIRECTION ( 'NONE',  ( 1.000000000000000000, 0.000000000000000000, 0.000000000000000000 ) ) ;
#136 = EDGE_LOOP ( 'NONE', ( #230, #180 ) ) ;
#137 = CLOSED_SHELL ( 'NONE', ( #125, #181, #225, #99, #196, #19, #219 ) ) ;
#138 = PERSON_AND_ORGANIZATION_ROLE ( 'design_owner' ) ;
#139 = DIRECTION ( 'NONE',  ( -0.000000000000000000, -0.000000000000000000, -1.000000000000000000 ) ) ;
#140 = FACE_OUTER_BOUND ( 'NONE', #118, .T. ) ;
#141 = CARTESIAN_POINT ( 'NONE',  ( 0.000000000000000000, 0.000000000000000000, 125.0000000000000000 ) ) ;
#142 = EDGE_LOOP ( 'NONE', ( #182, #244, #51, #66 ) ) ;
#143 = DIRECTION ( 'NONE',  ( 1.000000000000000000, 0.000000000000000000, 0.000000000000000000 ) ) ;
#144 = LOCAL_TIME ( 14, 52, 1.000000000000000000, #109 ) ;
#145 = DIRECTION ( 'NONE',  ( 0.000000000000000000, 0.000000000000000000, 1.000000000000000000 ) ) ;
#146 = DIRECTION ( 'NONE',  ( -0.000000000000000000, -0.000000000000000000, -1.000000000000000000 ) ) ;
#147 = VECTOR ( 'NONE', #174, 1000.000000000000000 ) ;
#148 = CC_DESIGN_SECURITY_CLASSIFICATION ( #231, ( #169 ) ) ;
#149 = MANIFOLD_SOLID_BREP ( 'Pøidat vysunutím3', #137 ) ;
#150 = EDGE_CURVE ( 'NONE', #89, #9, #248, .T. ) ;
#151 = AXIS2_PLACEMENT_3D ( 'NONE', #124, #92, #207 ) ;
#152 = DIRECTION ( 'NONE',  ( 1.000000000000000000, 0.000000000000000000, 0.000000000000000000 ) ) ;
#153 = DIRECTION ( 'NONE',  ( -0.000000000000000000, -0.000000000000000000, -1.000000000000000000 ) ) ;
#154 = EDGE_LOOP ( 'NONE', ( #200, #85 ) ) ;
#155 = PRODUCT_DEFINITION_SHAPE ( 'NONE', 'NONE',  #26 ) ;
#156 = COORDINATED_UNIVERSAL_TIME_OFFSET ( 1, 0, .AHEAD. ) ;
#157 = DIRECTION ( 'NONE',  ( 0.000000000000000000, 0.000000000000000000, 1.000000000000000000 ) ) ;
#158 = CC_DESIGN_PERSON_AND_ORGANIZATION_ASSIGNMENT ( #121, #227, ( #231 ) ) ;
#159 = LOCAL_TIME ( 14, 52, 1.000000000000000000, #195 ) ;
#160 = CC_DESIGN_PERSON_AND_ORGANIZATION_ASSIGNMENT ( #18, #234, ( #26 ) ) ;
#161 = AXIS2_PLACEMENT_3D ( 'NONE', #141, #146, #184 ) ;
#162 = CC_DESIGN_APPROVAL ( #177, ( #169 ) ) ;
#163 = AXIS2_PLACEMENT_3D ( 'NONE', #128, #202, #33 ) ;
#164 = CARTESIAN_POINT ( 'NONE',  ( 0.000000000000000000, 0.000000000000000000, 5.000000000000000000 ) ) ;
#165 = ORIENTED_EDGE ( 'NONE', *, *, #7, .T. ) ;
#166 = APPLICATION_CONTEXT ( 'configuration controlled 3d designs of mechanical parts and assemblies' ) ;
#167 = APPROVAL_PERSON_ORGANIZATION ( #229, #90, #39 ) ;
#168 = APPROVAL_DATE_TIME ( #28, #177 ) ;
#169 = PRODUCT_DEFINITION_FORMATION_WITH_SPECIFIED_SOURCE ( 'LIBOVOLNÝ', '', #130, .NOT_KNOWN. ) ;
#170 = DIRECTION ( 'NONE',  ( 0.000000000000000000, 0.000000000000000000, 1.000000000000000000 ) ) ;
#171 = LOCAL_TIME ( 14, 52, 1.000000000000000000, #156 ) ;
#172 = CALENDAR_DATE ( 2023, 13, 2 ) ;
#173 = VECTOR ( 'NONE', #53, 1000.000000000000000 ) ;
#174 = DIRECTION ( 'NONE',  ( -0.000000000000000000, -0.000000000000000000, -1.000000000000000000 ) ) ;
#175 = CIRCLE ( 'NONE', #246, 7.000000000000000000 ) ;
#176 = APPROVAL_DATE_TIME ( #11, #90 ) ;
#177 = APPROVAL ( #72, 'NEURÈENÝ' ) ;
#178 = DIRECTION ( 'NONE',  ( 0.000000000000000000, 0.000000000000000000, 1.000000000000000000 ) ) ;
#179 = AXIS2_PLACEMENT_3D ( 'NONE', #190, #59, #111 ) ;
#180 = ORIENTED_EDGE ( 'NONE', *, *, #150, .T. ) ;
#181 = ADVANCED_FACE ( 'NONE', ( #55 ), #189, .T. ) ;
#182 = ORIENTED_EDGE ( 'NONE', *, *, #209, .F. ) ;
#183 = DIRECTION ( 'NONE',  ( -0.000000000000000000, -0.000000000000000000, -1.000000000000000000 ) ) ;
#184 = DIRECTION ( 'NONE',  ( -1.000000000000000000, 0.000000000000000000, 0.000000000000000000 ) ) ;
#185 = ORIENTED_EDGE ( 'NONE', *, *, #57, .T. ) ;
#186 = AXIS2_PLACEMENT_3D ( 'NONE', #241, #76, #224 ) ;
#187 = VERTEX_POINT ( 'NONE', #93 ) ;
#188 = ORIENTED_EDGE ( 'NONE', *, *, #131, .T. ) ;
#189 = CYLINDRICAL_SURFACE ( 'NONE', #163, 7.000000000000000000 ) ;
#190 = CARTESIAN_POINT ( 'NONE',  ( 0.000000000000000000, 0.000000000000000000, 125.0000000000000000 ) ) ;
#191 = PLANE ( 'NONE',  #223 ) ;
#192 = EDGE_CURVE ( 'NONE', #187, #122, #30, .T. ) ;
#193 = ADVANCED_BREP_SHAPE_REPRESENTATION ( 'bb74', ( #149, #78 ), #41 ) ;
#194 = PERSON_AND_ORGANIZATION ( #243, #210 ) ;
#195 = COORDINATED_UNIVERSAL_TIME_OFFSET ( 1, 0, .AHEAD. ) ;
#196 = ADVANCED_FACE ( 'NONE', ( #247 ), #191, .F. ) ;
#197 = LOCAL_TIME ( 14, 52, 1.000000000000000000, #63 ) ;
#198 = VERTEX_POINT ( 'NONE', #10 ) ;
#199 = DIRECTION ( 'NONE',  ( 1.000000000000000000, 0.000000000000000000, -0.000000000000000000 ) ) ;
#200 = ORIENTED_EDGE ( 'NONE', *, *, #192, .F. ) ;
#201 = VECTOR ( 'NONE', #139, 1000.000000000000000 ) ;
#202 = DIRECTION ( 'NONE',  ( -0.000000000000000000, -0.000000000000000000, -1.000000000000000000 ) ) ;
#203 = CALENDAR_DATE ( 2023, 13, 2 ) ;
#204 = CARTESIAN_POINT ( 'NONE',  ( 0.000000000000000000, 0.000000000000000000, 0.000000000000000000 ) ) ;
#205 = PERSON_AND_ORGANIZATION ( #243, #210 ) ;
#206 = CC_DESIGN_PERSON_AND_ORGANIZATION_ASSIGNMENT ( #205, #12, ( #169 ) ) ;
#207 = DIRECTION ( 'NONE',  ( 1.000000000000000000, 0.000000000000000000, 0.000000000000000000 ) ) ;
#208 = DIRECTION ( 'NONE',  ( 0.000000000000000000, 0.000000000000000000, 1.000000000000000000 ) ) ;
#209 = EDGE_CURVE ( 'NONE', #89, #198, #37, .T. ) ;
#210 = ORGANIZATION ( 'NEURÈENÝ', 'NEURÈENÝ', '' ) ;
#211 = ORIENTED_EDGE ( 'NONE', *, *, #7, .F. ) ;
#212 = CARTESIAN_POINT ( 'NONE',  ( 0.000000000000000000, 0.000000000000000000, 125.0000000000000000 ) ) ;
#213 = CARTESIAN_POINT ( 'NONE',  ( 7.000000000000000000, 8.572527594031473190E-16, 0.000000000000000000 ) ) ;
#214 = CC_DESIGN_PERSON_AND_ORGANIZATION_ASSIGNMENT ( #25, #138, ( #130 ) ) ;
#215 = CARTESIAN_POINT ( 'NONE',  ( 7.000000000000000000, 8.572527594031473190E-16, 5.000000000000000000 ) ) ;
#216 = CIRCLE ( 'NONE', #151, 7.000000000000000000 ) ;
#217 = DATE_AND_TIME ( #44, #197 ) ;
#218 = CYLINDRICAL_SURFACE ( 'NONE', #161, 4.500000000000000000 ) ;
#219 = ADVANCED_FACE ( 'NONE', ( #70 ), #73, .T. ) ;
#220 = ORIENTED_EDGE ( 'NONE', *, *, #116, .T. ) ;
#221 = CARTESIAN_POINT ( 'NONE',  ( 0.000000000000000000, 0.000000000000000000, 5.000000000000000000 ) ) ;
#222 = CARTESIAN_POINT ( 'NONE',  ( 0.000000000000000000, 0.000000000000000000, 125.0000000000000000 ) ) ;
#223 = AXIS2_PLACEMENT_3D ( 'NONE', #36, #178, #199 ) ;
#224 = DIRECTION ( 'NONE',  ( 1.000000000000000000, 0.000000000000000000, 0.000000000000000000 ) ) ;
#225 = ADVANCED_FACE ( 'NONE', ( #140 ), #240, .T. ) ;
#226 = FACE_BOUND ( 'NONE', #65, .T. ) ;
#227 = PERSON_AND_ORGANIZATION_ROLE ( 'classification_officer' ) ;
#228 = VERTEX_POINT ( 'NONE', #50 ) ;
#229 = PERSON_AND_ORGANIZATION ( #243, #210 ) ;
#230 = ORIENTED_EDGE ( 'NONE', *, *, #95, .T. ) ;
#231 = SECURITY_CLASSIFICATION ( '', '', #45 ) ;
#232 = MECHANICAL_CONTEXT ( 'NONE', #166, 'mechanical' ) ;
#233 = DIRECTION ( 'NONE',  ( 1.000000000000000000, 0.000000000000000000, 0.000000000000000000 ) ) ;
#234 = PERSON_AND_ORGANIZATION_ROLE ( 'creator' ) ;
#235 = DIRECTION ( 'NONE',  ( 1.000000000000000000, 0.000000000000000000, -0.000000000000000000 ) ) ;
#236 = APPROVAL_ROLE ( '' ) ;
#237 = PERSON_AND_ORGANIZATION ( #243, #210 ) ;
#238 = DIRECTION ( 'NONE',  ( 0.000000000000000000, 0.000000000000000000, 1.000000000000000000 ) ) ;
#239 = ORIENTED_EDGE ( 'NONE', *, *, #209, .T. ) ;
#240 = CYLINDRICAL_SURFACE ( 'NONE', #119, 7.000000000000000000 ) ;
#241 = CARTESIAN_POINT ( 'NONE',  ( 0.000000000000000000, 0.000000000000000000, 5.000000000000000000 ) ) ;
#242 = CC_DESIGN_PERSON_AND_ORGANIZATION_ASSIGNMENT ( #120, #20, ( #169 ) ) ;
#243 = PERSON ( 'NEURÈENÝ', 'NEURÈENÝ', 'NEURÈENÝ', ('NEURÈENÝ'), ('NEURÈENÝ'), ('NEURÈENÝ') ) ;
#244 = ORIENTED_EDGE ( 'NONE', *, *, #95, .F. ) ;
#245 = CARTESIAN_POINT ( 'NONE',  ( 0.000000000000000000, 0.000000000000000000, 0.000000000000000000 ) ) ;
#246 = AXIS2_PLACEMENT_3D ( 'NONE', #86, #157, #135 ) ;
#247 = FACE_OUTER_BOUND ( 'NONE', #154, .T. ) ;
#248 = CIRCLE ( 'NONE', #249, 4.500000000000000000 ) ;
#249 = AXIS2_PLACEMENT_3D ( 'NONE', #222, #107, #88 ) ;
#250 = LINE ( 'NONE', #56, #147 ) ;
#251 = DIRECTION ( 'NONE',  ( 1.000000000000000000, 0.000000000000000000, 0.000000000000000000 ) ) ;
#252 = ORIENTED_EDGE ( 'NONE', *, *, #131, .F. ) ;
#253 = PLANE ( 'NONE',  #64 ) ;
#254 = VERTEX_POINT ( 'NONE', #215 ) ;
#255 = APPROVAL_DATE_TIME ( #217, #52 ) ;
ENDSEC;
END-ISO-10303-21;
