ISO-10303-21;
HEADER;
FILE_DESCRIPTION (( 'STEP AP203' ),
    '1' );
FILE_NAME ('1593.STEP',
    '2023-02-13T13:51:09',
    ( '' ),
    ( '' ),
    'SwSTEP 2.0',
    'SolidWorks 2019',
    '' );
FILE_SCHEMA (( 'CONFIG_CONTROL_DESIGN' ));
ENDSEC;

DATA;
#1 = CALENDAR_DATE ( 2023, 13, 2 ) ;
#2 = PERSON_AND_ORGANIZATION_ROLE ( 'creator' ) ;
#3 = CARTESIAN_POINT ( 'NONE',  ( -4.500000000000000000, 0.000000000000000000, 315.0000000000000000 ) ) ;
#4 = CARTESIAN_POINT ( 'NONE',  ( -7.000000000000000000, 0.000000000000000000, 5.000000000000000000 ) ) ;
#5 = AXIS2_PLACEMENT_3D ( 'NONE', #218, #246, #230 ) ;
#6 = DIRECTION ( 'NONE',  ( -1.000000000000000000, 0.000000000000000000, 0.000000000000000000 ) ) ;
#7 = DIRECTION ( 'NONE',  ( -0.000000000000000000, -0.000000000000000000, -1.000000000000000000 ) ) ;
#8 = DIRECTION ( 'NONE',  ( 1.000000000000000000, 0.000000000000000000, 0.000000000000000000 ) ) ;
#9 = CIRCLE ( 'NONE', #92, 7.000000000000000000 ) ;
#10 = DIRECTION ( 'NONE',  ( 0.000000000000000000, 0.000000000000000000, 1.000000000000000000 ) ) ;
#11 = DIRECTION ( 'NONE',  ( 0.000000000000000000, 0.000000000000000000, 1.000000000000000000 ) ) ;
#12 = ORIENTED_EDGE ( 'NONE', *, *, #67, .T. ) ;
#13 = VECTOR ( 'NONE', #66, 1000.000000000000000 ) ;
#14 = PERSON_AND_ORGANIZATION ( #27, #44 ) ;
#15 = ORIENTED_EDGE ( 'NONE', *, *, #40, .F. ) ;
#16 = PERSON_AND_ORGANIZATION_ROLE ( 'classification_officer' ) ;
#17 = VERTEX_POINT ( 'NONE', #219 ) ;
#18 = AXIS2_PLACEMENT_3D ( 'NONE', #45, #170, #148 ) ;
#19 = CARTESIAN_POINT ( 'NONE',  ( -7.000000000000000000, 0.000000000000000000, 0.000000000000000000 ) ) ;
#20 = CIRCLE ( 'NONE', #138, 7.000000000000000000 ) ;
#21 = CARTESIAN_POINT ( 'NONE',  ( 0.000000000000000000, 0.000000000000000000, 5.000000000000000000 ) ) ;
#22 = APPROVAL_STATUS ( 'not_yet_approved' ) ;
#23 = DIRECTION ( 'NONE',  ( -0.000000000000000000, -0.000000000000000000, -1.000000000000000000 ) ) ;
#24 = CALENDAR_DATE ( 2023, 13, 2 ) ;
#25 = EDGE_CURVE ( 'NONE', #49, #17, #243, .T. ) ;
#26 = AXIS2_PLACEMENT_3D ( 'NONE', #186, #223, #149 ) ;
#27 = PERSON ( 'NEURÈENÝ', 'NEURÈENÝ', 'NEURÈENÝ', ('NEURÈENÝ'), ('NEURÈENÝ'), ('NEURÈENÝ') ) ;
#28 = ADVANCED_FACE ( 'NONE', ( #253 ), #69, .T. ) ;
#29 = APPLICATION_PROTOCOL_DEFINITION ( 'international standard', 'config_control_design', 1994, #193 ) ;
#30 = EDGE_LOOP ( 'NONE', ( #206, #182 ) ) ;
#31 = DIRECTION ( 'NONE',  ( -1.000000000000000000, 0.000000000000000000, 0.000000000000000000 ) ) ;
#32 = ADVANCED_FACE ( 'NONE', ( #212 ), #58, .T. ) ;
#33 = PERSON_AND_ORGANIZATION ( #27, #44 ) ;
#34 = VERTEX_POINT ( 'NONE', #4 ) ;
#35 = CC_DESIGN_APPROVAL ( #48, ( #95 ) ) ;
#36 = DATE_AND_TIME ( #37, #60 ) ;
#37 = CALENDAR_DATE ( 2023, 13, 2 ) ;
#38 = ORIENTED_EDGE ( 'NONE', *, *, #113, .T. ) ;
#39 = CC_DESIGN_APPROVAL ( #82, ( #72 ) ) ;
#40 = EDGE_CURVE ( 'NONE', #34, #122, #143, .T. ) ;
#41 = EDGE_CURVE ( 'NONE', #34, #101, #147, .T. ) ;
#42 = CARTESIAN_POINT ( 'NONE',  ( 7.000000000000000000, 8.572527594031473190E-16, 0.000000000000000000 ) ) ;
#43 = UNCERTAINTY_MEASURE_WITH_UNIT (LENGTH_MEASURE( 1.000000000000000082E-05 ), #190, 'distance_accuracy_value', 'NONE');
#44 = ORGANIZATION ( 'NEURÈENÝ', 'NEURÈENÝ', '' ) ;
#45 = CARTESIAN_POINT ( 'NONE',  ( 0.000000000000000000, 0.000000000000000000, 5.000000000000000000 ) ) ;
#46 = ADVANCED_BREP_SHAPE_REPRESENTATION ( '1593', ( #226, #5 ), #99 ) ;
#47 = DIRECTION ( 'NONE',  ( -0.000000000000000000, -0.000000000000000000, -1.000000000000000000 ) ) ;
#48 = APPROVAL ( #254, 'NEURÈENÝ' ) ;
#49 = VERTEX_POINT ( 'NONE', #111 ) ;
#50 = CIRCLE ( 'NONE', #26, 4.500000000000000000 ) ;
#51 = CARTESIAN_POINT ( 'NONE',  ( 0.000000000000000000, 0.000000000000000000, 315.0000000000000000 ) ) ;
#52 = APPROVAL_STATUS ( 'not_yet_approved' ) ;
#53 = APPROVAL_ROLE ( '' ) ;
#54 = VERTEX_POINT ( 'NONE', #106 ) ;
#55 = APPROVAL_DATE_TIME ( #240, #234 ) ;
#56 = DATE_TIME_ROLE ( 'classification_date' ) ;
#57 = ADVANCED_FACE ( 'NONE', ( #81 ), #189, .T. ) ;
#58 = CYLINDRICAL_SURFACE ( 'NONE', #70, 4.500000000000000000 ) ;
#59 = CLOSED_SHELL ( 'NONE', ( #32, #57, #207, #78, #135, #142, #28 ) ) ;
#60 = LOCAL_TIME ( 14, 51, 9.000000000000000000, #121 ) ;
#61 = CC_DESIGN_PERSON_AND_ORGANIZATION_ASSIGNMENT ( #93, #16, ( #169 ) ) ;
#62 = DIRECTION ( 'NONE',  ( 0.000000000000000000, 0.000000000000000000, 1.000000000000000000 ) ) ;
#63 = DIRECTION ( 'NONE',  ( 1.000000000000000000, 0.000000000000000000, 0.000000000000000000 ) ) ;
#64 = DIRECTION ( 'NONE',  ( 1.000000000000000000, 0.000000000000000000, 0.000000000000000000 ) ) ;
#65 = CARTESIAN_POINT ( 'NONE',  ( 0.000000000000000000, 0.000000000000000000, 315.0000000000000000 ) ) ;
#66 = DIRECTION ( 'NONE',  ( -0.000000000000000000, -0.000000000000000000, -1.000000000000000000 ) ) ;
#67 = EDGE_CURVE ( 'NONE', #166, #54, #50, .T. ) ;
#68 = LOCAL_TIME ( 14, 51, 9.000000000000000000, #242 ) ;
#69 = PLANE ( 'NONE',  #110 ) ;
#70 = AXIS2_PLACEMENT_3D ( 'NONE', #245, #229, #108 ) ;
#71 = PERSON_AND_ORGANIZATION ( #27, #44 ) ;
#72 = PRODUCT_DEFINITION_FORMATION_WITH_SPECIFIED_SOURCE ( 'LIBOVOLNÝ', '', #84, .NOT_KNOWN. ) ;
#73 = COORDINATED_UNIVERSAL_TIME_OFFSET ( 1, 0, .AHEAD. ) ;
#74 = EDGE_LOOP ( 'NONE', ( #94, #87, #192, #12 ) ) ;
#75 = APPROVAL_PERSON_ORGANIZATION ( #129, #234, #107 ) ;
#76 = EDGE_LOOP ( 'NONE', ( #180, #165 ) ) ;
#77 = VECTOR ( 'NONE', #244, 1000.000000000000000 ) ;
#78 = ADVANCED_FACE ( 'NONE', ( #131, #187 ), #86, .T. ) ;
#79 = ORIENTED_EDGE ( 'NONE', *, *, #173, .F. ) ;
#80 = AXIS2_PLACEMENT_3D ( 'NONE', #65, #47, #174 ) ;
#81 = FACE_OUTER_BOUND ( 'NONE', #103, .T. ) ;
#82 = APPROVAL ( #52, 'NEURÈENÝ' ) ;
#83 = DIRECTION ( 'NONE',  ( -0.000000000000000000, -0.000000000000000000, -1.000000000000000000 ) ) ;
#84 = PRODUCT ( '1593', '1593', '', ( #232 ) ) ;
#85 = AXIS2_PLACEMENT_3D ( 'NONE', #198, #178, #154 ) ;
#86 = PLANE ( 'NONE',  #132 ) ;
#87 = ORIENTED_EDGE ( 'NONE', *, *, #249, .F. ) ;
#88 = FACE_OUTER_BOUND ( 'NONE', #205, .T. ) ;
#89 = AXIS2_PLACEMENT_3D ( 'NONE', #176, #157, #31 ) ;
#90 = PERSON_AND_ORGANIZATION ( #27, #44 ) ;
#91 = PERSON_AND_ORGANIZATION_ROLE ( 'creator' ) ;
#92 = AXIS2_PLACEMENT_3D ( 'NONE', #168, #241, #225 ) ;
#93 = PERSON_AND_ORGANIZATION ( #27, #44 ) ;
#94 = ORIENTED_EDGE ( 'NONE', *, *, #177, .F. ) ;
#95 = PRODUCT_DEFINITION ( 'NEZNÁMÝ', '', #72, #203 ) ;
#96 = PRODUCT_RELATED_PRODUCT_CATEGORY ( 'detail', '', ( #84 ) ) ;
#97 = COORDINATED_UNIVERSAL_TIME_OFFSET ( 1, 0, .AHEAD. ) ;
#98 = ORIENTED_EDGE ( 'NONE', *, *, #231, .T. ) ;
#99 =( GEOMETRIC_REPRESENTATION_CONTEXT ( 3 ) GLOBAL_UNCERTAINTY_ASSIGNED_CONTEXT ( ( #43 ) ) GLOBAL_UNIT_ASSIGNED_CONTEXT ( ( #190, #152, #196 ) ) REPRESENTATION_CONTEXT ( 'NONE', 'WORKASPACE' ) );
#100 = PERSON_AND_ORGANIZATION_ROLE ( 'design_supplier' ) ;
#101 = VERTEX_POINT ( 'NONE', #19 ) ;
#102 = COORDINATED_UNIVERSAL_TIME_OFFSET ( 1, 0, .AHEAD. ) ;
#103 = EDGE_LOOP ( 'NONE', ( #222, #162, #184, #140 ) ) ;
#104 = LINE ( 'NONE', #3, #160 ) ;
#105 = EDGE_CURVE ( 'NONE', #17, #166, #104, .T. ) ;
#106 = CARTESIAN_POINT ( 'NONE',  ( 4.500000000000000000, 5.510910596163088569E-16, 5.000000000000000000 ) ) ;
#107 = APPROVAL_ROLE ( '' ) ;
#108 = DIRECTION ( 'NONE',  ( -1.000000000000000000, 0.000000000000000000, 0.000000000000000000 ) ) ;
#109 = CC_DESIGN_SECURITY_CLASSIFICATION ( #169, ( #72 ) ) ;
#110 = AXIS2_PLACEMENT_3D ( 'NONE', #51, #235, #227 ) ;
#111 = CARTESIAN_POINT ( 'NONE',  ( 4.500000000000000000, 5.510910596163088569E-16, 315.0000000000000000 ) ) ;
#112 = DIRECTION ( 'NONE',  ( 1.000000000000000000, 0.000000000000000000, -0.000000000000000000 ) ) ;
#113 = EDGE_CURVE ( 'NONE', #122, #34, #9, .T. ) ;
#114 = VERTEX_POINT ( 'NONE', #42 ) ;
#115 = LINE ( 'NONE', #137, #13 ) ;
#116 = DIRECTION ( 'NONE',  ( 0.000000000000000000, 0.000000000000000000, 1.000000000000000000 ) ) ;
#117 = EDGE_CURVE ( 'NONE', #114, #101, #20, .T. ) ;
#118 = SECURITY_CLASSIFICATION_LEVEL ( 'unclassified' ) ;
#119 = ORIENTED_EDGE ( 'NONE', *, *, #25, .T. ) ;
#120 = CC_DESIGN_PERSON_AND_ORGANIZATION_ASSIGNMENT ( #90, #201, ( #84 ) ) ;
#121 = COORDINATED_UNIVERSAL_TIME_OFFSET ( 1, 0, .AHEAD. ) ;
#122 = VERTEX_POINT ( 'NONE', #216 ) ;
#123 = AXIS2_PLACEMENT_3D ( 'NONE', #202, #11, #220 ) ;
#124 = CALENDAR_DATE ( 2023, 13, 2 ) ;
#125 = CIRCLE ( 'NONE', #175, 4.500000000000000000 ) ;
#126 = ORIENTED_EDGE ( 'NONE', *, *, #249, .T. ) ;
#127 = DIRECTION ( 'NONE',  ( 1.000000000000000000, 0.000000000000000000, -0.000000000000000000 ) ) ;
#128 = CARTESIAN_POINT ( 'NONE',  ( 0.000000000000000000, 0.000000000000000000, 0.000000000000000000 ) ) ;
#129 = PERSON_AND_ORGANIZATION ( #27, #44 ) ;
#130 = CARTESIAN_POINT ( 'NONE',  ( -7.000000000000000000, 0.000000000000000000, 5.000000000000000000 ) ) ;
#131 = FACE_BOUND ( 'NONE', #30, .T. ) ;
#132 = AXIS2_PLACEMENT_3D ( 'NONE', #172, #62, #127 ) ;
#133 = EDGE_LOOP ( 'NONE', ( #255, #38 ) ) ;
#134 = DIRECTION ( 'NONE',  ( 0.000000000000000000, 0.000000000000000000, 1.000000000000000000 ) ) ;
#135 = ADVANCED_FACE ( 'NONE', ( #199 ), #248, .F. ) ;
#136 = CARTESIAN_POINT ( 'NONE',  ( -4.500000000000000000, 0.000000000000000000, 5.000000000000000000 ) ) ;
#137 = CARTESIAN_POINT ( 'NONE',  ( 7.000000000000000000, 8.572527594031473190E-16, 5.000000000000000000 ) ) ;
#138 = AXIS2_PLACEMENT_3D ( 'NONE', #128, #116, #8 ) ;
#139 = ORIENTED_EDGE ( 'NONE', *, *, #183, .T. ) ;
#140 = ORIENTED_EDGE ( 'NONE', *, *, #41, .F. ) ;
#141 = APPROVAL_ROLE ( '' ) ;
#142 = ADVANCED_FACE ( 'NONE', ( #233 ), #179, .T. ) ;
#143 = CIRCLE ( 'NONE', #18, 7.000000000000000000 ) ;
#144 = APPROVAL_DATE_TIME ( #36, #48 ) ;
#145 = EDGE_LOOP ( 'NONE', ( #239, #158, #139, #252 ) ) ;
#146 = CALENDAR_DATE ( 2023, 13, 2 ) ;
#147 = LINE ( 'NONE', #130, #77 ) ;
#148 = DIRECTION ( 'NONE',  ( 1.000000000000000000, 0.000000000000000000, 0.000000000000000000 ) ) ;
#149 = DIRECTION ( 'NONE',  ( 1.000000000000000000, 0.000000000000000000, 0.000000000000000000 ) ) ;
#150 = CARTESIAN_POINT ( 'NONE',  ( 0.000000000000000000, 0.000000000000000000, 0.000000000000000000 ) ) ;
#151 = APPROVAL_PERSON_ORGANIZATION ( #238, #48, #53 ) ;
#152 =( NAMED_UNIT ( * ) PLANE_ANGLE_UNIT ( ) SI_UNIT ( $, .RADIAN. ) );
#153 = DIRECTION ( 'NONE',  ( 0.000000000000000000, 0.000000000000000000, 1.000000000000000000 ) ) ;
#154 = DIRECTION ( 'NONE',  ( 1.000000000000000000, 0.000000000000000000, 0.000000000000000000 ) ) ;
#155 = DATE_AND_TIME ( #24, #191 ) ;
#156 = LOCAL_TIME ( 14, 51, 9.000000000000000000, #97 ) ;
#157 = DIRECTION ( 'NONE',  ( -0.000000000000000000, -0.000000000000000000, -1.000000000000000000 ) ) ;
#158 = ORIENTED_EDGE ( 'NONE', *, *, #177, .T. ) ;
#159 = EDGE_LOOP ( 'NONE', ( #126, #119 ) ) ;
#160 = VECTOR ( 'NONE', #83, 1000.000000000000000 ) ;
#161 = APPLICATION_PROTOCOL_DEFINITION ( 'international standard', 'config_control_design', 1994, #210 ) ;
#162 = ORIENTED_EDGE ( 'NONE', *, *, #173, .T. ) ;
#163 = DATE_TIME_ROLE ( 'creation_date' ) ;
#164 = CC_DESIGN_PERSON_AND_ORGANIZATION_ASSIGNMENT ( #33, #100, ( #72 ) ) ;
#165 = ORIENTED_EDGE ( 'NONE', *, *, #117, .F. ) ;
#166 = VERTEX_POINT ( 'NONE', #136 ) ;
#167 = VECTOR ( 'NONE', #7, 1000.000000000000000 ) ;
#168 = CARTESIAN_POINT ( 'NONE',  ( 0.000000000000000000, 0.000000000000000000, 5.000000000000000000 ) ) ;
#169 = SECURITY_CLASSIFICATION ( '', '', #118 ) ;
#170 = DIRECTION ( 'NONE',  ( 0.000000000000000000, 0.000000000000000000, 1.000000000000000000 ) ) ;
#171 = AXIS2_PLACEMENT_3D ( 'NONE', #150, #10, #64 ) ;
#172 = CARTESIAN_POINT ( 'NONE',  ( 0.000000000000000000, 0.000000000000000000, 5.000000000000000000 ) ) ;
#173 = EDGE_CURVE ( 'NONE', #122, #114, #115, .T. ) ;
#174 = DIRECTION ( 'NONE',  ( -1.000000000000000000, 0.000000000000000000, 0.000000000000000000 ) ) ;
#175 = AXIS2_PLACEMENT_3D ( 'NONE', #217, #134, #63 ) ;
#176 = CARTESIAN_POINT ( 'NONE',  ( 0.000000000000000000, 0.000000000000000000, 5.000000000000000000 ) ) ;
#177 = EDGE_CURVE ( 'NONE', #49, #54, #250, .T. ) ;
#178 = DIRECTION ( 'NONE',  ( 0.000000000000000000, 0.000000000000000000, 1.000000000000000000 ) ) ;
#179 = CYLINDRICAL_SURFACE ( 'NONE', #80, 4.500000000000000000 ) ;
#180 = ORIENTED_EDGE ( 'NONE', *, *, #231, .F. ) ;
#181 = CC_DESIGN_DATE_AND_TIME_ASSIGNMENT ( #237, #163, ( #95 ) ) ;
#182 = ORIENTED_EDGE ( 'NONE', *, *, #183, .F. ) ;
#183 = EDGE_CURVE ( 'NONE', #54, #166, #125, .T. ) ;
#184 = ORIENTED_EDGE ( 'NONE', *, *, #117, .T. ) ;
#185 = SHAPE_DEFINITION_REPRESENTATION ( #213, #46 ) ;
#186 = CARTESIAN_POINT ( 'NONE',  ( 0.000000000000000000, 0.000000000000000000, 5.000000000000000000 ) ) ;
#187 = FACE_OUTER_BOUND ( 'NONE', #133, .T. ) ;
#188 = CC_DESIGN_DATE_AND_TIME_ASSIGNMENT ( #155, #56, ( #169 ) ) ;
#189 = CYLINDRICAL_SURFACE ( 'NONE', #209, 7.000000000000000000 ) ;
#190 =( LENGTH_UNIT ( ) NAMED_UNIT ( * ) SI_UNIT ( .MILLI., .METRE. ) );
#191 = LOCAL_TIME ( 14, 51, 9.000000000000000000, #102 ) ;
#192 = ORIENTED_EDGE ( 'NONE', *, *, #105, .T. ) ;
#193 = APPLICATION_CONTEXT ( 'configuration controlled 3d designs of mechanical parts and assemblies' ) ;
#194 = CARTESIAN_POINT ( 'NONE',  ( 4.500000000000000000, 5.510910596163088569E-16, 315.0000000000000000 ) ) ;
#195 = LOCAL_TIME ( 14, 51, 9.000000000000000000, #73 ) ;
#196 =( NAMED_UNIT ( * ) SI_UNIT ( $, .STERADIAN. ) SOLID_ANGLE_UNIT ( ) );
#197 = CC_DESIGN_PERSON_AND_ORGANIZATION_ASSIGNMENT ( #14, #2, ( #72 ) ) ;
#198 = CARTESIAN_POINT ( 'NONE',  ( 0.000000000000000000, 0.000000000000000000, 315.0000000000000000 ) ) ;
#199 = FACE_OUTER_BOUND ( 'NONE', #76, .T. ) ;
#200 = AXIS2_PLACEMENT_3D ( 'NONE', #214, #153, #112 ) ;
#201 = PERSON_AND_ORGANIZATION_ROLE ( 'design_owner' ) ;
#202 = CARTESIAN_POINT ( 'NONE',  ( 0.000000000000000000, 0.000000000000000000, 315.0000000000000000 ) ) ;
#203 = DESIGN_CONTEXT ( 'detailed design', #210, 'design' ) ;
#204 = PERSON_AND_ORGANIZATION ( #27, #44 ) ;
#205 = EDGE_LOOP ( 'NONE', ( #79, #15, #215, #98 ) ) ;
#206 = ORIENTED_EDGE ( 'NONE', *, *, #67, .F. ) ;
#207 = ADVANCED_FACE ( 'NONE', ( #88 ), #247, .T. ) ;
#208 = CC_DESIGN_PERSON_AND_ORGANIZATION_ASSIGNMENT ( #204, #91, ( #95 ) ) ;
#209 = AXIS2_PLACEMENT_3D ( 'NONE', #21, #23, #6 ) ;
#210 = APPLICATION_CONTEXT ( 'configuration controlled 3d designs of mechanical parts and assemblies' ) ;
#211 = CIRCLE ( 'NONE', #171, 7.000000000000000000 ) ;
#212 = FACE_OUTER_BOUND ( 'NONE', #145, .T. ) ;
#213 = PRODUCT_DEFINITION_SHAPE ( 'NONE', 'NONE',  #95 ) ;
#214 = CARTESIAN_POINT ( 'NONE',  ( 0.000000000000000000, 0.000000000000000000, 0.000000000000000000 ) ) ;
#215 = ORIENTED_EDGE ( 'NONE', *, *, #41, .T. ) ;
#216 = CARTESIAN_POINT ( 'NONE',  ( 7.000000000000000000, 8.572527594031473190E-16, 5.000000000000000000 ) ) ;
#217 = CARTESIAN_POINT ( 'NONE',  ( 0.000000000000000000, 0.000000000000000000, 5.000000000000000000 ) ) ;
#218 = CARTESIAN_POINT ( 'NONE',  ( 0.000000000000000000, 0.000000000000000000, 0.000000000000000000 ) ) ;
#219 = CARTESIAN_POINT ( 'NONE',  ( -4.500000000000000000, 0.000000000000000000, 315.0000000000000000 ) ) ;
#220 = DIRECTION ( 'NONE',  ( 1.000000000000000000, 0.000000000000000000, 0.000000000000000000 ) ) ;
#221 = APPROVAL_DATE_TIME ( #251, #82 ) ;
#222 = ORIENTED_EDGE ( 'NONE', *, *, #113, .F. ) ;
#223 = DIRECTION ( 'NONE',  ( 0.000000000000000000, 0.000000000000000000, 1.000000000000000000 ) ) ;
#224 = CC_DESIGN_APPROVAL ( #234, ( #169 ) ) ;
#225 = DIRECTION ( 'NONE',  ( 1.000000000000000000, 0.000000000000000000, 0.000000000000000000 ) ) ;
#226 = MANIFOLD_SOLID_BREP ( 'Pøidat vysunutím3', #59 ) ;
#227 = DIRECTION ( 'NONE',  ( 1.000000000000000000, 0.000000000000000000, -0.000000000000000000 ) ) ;
#228 = APPROVAL_PERSON_ORGANIZATION ( #71, #82, #141 ) ;
#229 = DIRECTION ( 'NONE',  ( -0.000000000000000000, -0.000000000000000000, -1.000000000000000000 ) ) ;
#230 = DIRECTION ( 'NONE',  ( 1.000000000000000000, 0.000000000000000000, 0.000000000000000000 ) ) ;
#231 = EDGE_CURVE ( 'NONE', #101, #114, #211, .T. ) ;
#232 = MECHANICAL_CONTEXT ( 'NONE', #193, 'mechanical' ) ;
#233 = FACE_OUTER_BOUND ( 'NONE', #74, .T. ) ;
#234 = APPROVAL ( #22, 'NEURÈENÝ' ) ;
#235 = DIRECTION ( 'NONE',  ( 0.000000000000000000, 0.000000000000000000, 1.000000000000000000 ) ) ;
#236 = CIRCLE ( 'NONE', #85, 4.500000000000000000 ) ;
#237 = DATE_AND_TIME ( #124, #195 ) ;
#238 = PERSON_AND_ORGANIZATION ( #27, #44 ) ;
#239 = ORIENTED_EDGE ( 'NONE', *, *, #25, .F. ) ;
#240 = DATE_AND_TIME ( #146, #68 ) ;
#241 = DIRECTION ( 'NONE',  ( 0.000000000000000000, 0.000000000000000000, 1.000000000000000000 ) ) ;
#242 = COORDINATED_UNIVERSAL_TIME_OFFSET ( 1, 0, .AHEAD. ) ;
#243 = CIRCLE ( 'NONE', #123, 4.500000000000000000 ) ;
#244 = DIRECTION ( 'NONE',  ( -0.000000000000000000, -0.000000000000000000, -1.000000000000000000 ) ) ;
#245 = CARTESIAN_POINT ( 'NONE',  ( 0.000000000000000000, 0.000000000000000000, 315.0000000000000000 ) ) ;
#246 = DIRECTION ( 'NONE',  ( 0.000000000000000000, 0.000000000000000000, 1.000000000000000000 ) ) ;
#247 = CYLINDRICAL_SURFACE ( 'NONE', #89, 7.000000000000000000 ) ;
#248 = PLANE ( 'NONE',  #200 ) ;
#249 = EDGE_CURVE ( 'NONE', #17, #49, #236, .T. ) ;
#250 = LINE ( 'NONE', #194, #167 ) ;
#251 = DATE_AND_TIME ( #1, #156 ) ;
#252 = ORIENTED_EDGE ( 'NONE', *, *, #105, .F. ) ;
#253 = FACE_OUTER_BOUND ( 'NONE', #159, .T. ) ;
#254 = APPROVAL_STATUS ( 'not_yet_approved' ) ;
#255 = ORIENTED_EDGE ( 'NONE', *, *, #40, .T. ) ;
ENDSEC;
END-ISO-10303-21;
