ISO-10303-21;
HEADER;
FILE_DESCRIPTION (( 'STEP AP203' ),
    '1' );
FILE_NAME ('226f.STEP',
    '2023-02-13T08:44:30',
    ( '' ),
    ( '' ),
    'SwSTEP 2.0',
    'SolidWorks 2019',
    '' );
FILE_SCHEMA (( 'CONFIG_CONTROL_DESIGN' ));
ENDSEC;

DATA;
#1 = SECURITY_CLASSIFICATION_LEVEL ( 'unclassified' ) ;
#2 = CIRCLE ( 'NONE', #252, 10.00000000000000178 ) ;
#3 = VERTEX_POINT ( 'NONE', #64 ) ;
#4 = ORIENTED_EDGE ( 'NONE', *, *, #215, .F. ) ;
#5 = COORDINATED_UNIVERSAL_TIME_OFFSET ( 1, 0, .AHEAD. ) ;
#6 = DATE_AND_TIME ( #235, #207 ) ;
#7 = VERTEX_POINT ( 'NONE', #222 ) ;
#8 = DIRECTION ( 'NONE',  ( 0.000000000000000000, 0.000000000000000000, 1.000000000000000000 ) ) ;
#9 = EDGE_CURVE ( 'NONE', #214, #89, #2, .T. ) ;
#10 = DIRECTION ( 'NONE',  ( 1.000000000000000000, 0.000000000000000000, 0.000000000000000000 ) ) ;
#11 = APPROVAL ( #192, 'NEURÈENÝ' ) ;
#12 = AXIS2_PLACEMENT_3D ( 'NONE', #221, #200, #26 ) ;
#13 = CARTESIAN_POINT ( 'NONE',  ( 10.00000000000000178, 1.224646799147353454E-15, 8.000000000000000000 ) ) ;
#14 = AXIS2_PLACEMENT_3D ( 'NONE', #120, #22, #99 ) ;
#15 = CARTESIAN_POINT ( 'NONE',  ( 0.000000000000000000, 0.000000000000000000, 8.000000000000000000 ) ) ;
#16 = COORDINATED_UNIVERSAL_TIME_OFFSET ( 1, 0, .AHEAD. ) ;
#17 = ADVANCED_FACE ( 'NONE', ( #161 ), #251, .T. ) ;
#18 = EDGE_LOOP ( 'NONE', ( #80, #234 ) ) ;
#19 = ORIENTED_EDGE ( 'NONE', *, *, #119, .T. ) ;
#20 = DIRECTION ( 'NONE',  ( -1.000000000000000000, 0.000000000000000000, 0.000000000000000000 ) ) ;
#21 = AXIS2_PLACEMENT_3D ( 'NONE', #225, #63, #203 ) ;
#22 = DIRECTION ( 'NONE',  ( 0.000000000000000000, 0.000000000000000000, 1.000000000000000000 ) ) ;
#23 = EDGE_CURVE ( 'NONE', #89, #214, #137, .T. ) ;
#24 = DIRECTION ( 'NONE',  ( -0.000000000000000000, -0.000000000000000000, -1.000000000000000000 ) ) ;
#25 = AXIS2_PLACEMENT_3D ( 'NONE', #175, #157, #142 ) ;
#26 = DIRECTION ( 'NONE',  ( 1.000000000000000000, 0.000000000000000000, 0.000000000000000000 ) ) ;
#27 = CC_DESIGN_PERSON_AND_ORGANIZATION_ASSIGNMENT ( #84, #76, ( #85 ) ) ;
#28 = CARTESIAN_POINT ( 'NONE',  ( -13.00000000000000178, 0.000000000000000000, 0.000000000000000000 ) ) ;
#29 = COORDINATED_UNIVERSAL_TIME_OFFSET ( 1, 0, .AHEAD. ) ;
#30 = DIRECTION ( 'NONE',  ( -1.000000000000000000, 0.000000000000000000, 0.000000000000000000 ) ) ;
#31 = DIRECTION ( 'NONE',  ( 0.000000000000000000, 0.000000000000000000, 1.000000000000000000 ) ) ;
#32 = CYLINDRICAL_SURFACE ( 'NONE', #77, 10.00000000000000178 ) ;
#33 = CIRCLE ( 'NONE', #111, 13.00000000000000178 ) ;
#34 = PRODUCT_DEFINITION ( 'NEZNÁMÝ', '', #223, #110 ) ;
#35 = FACE_OUTER_BOUND ( 'NONE', #73, .T. ) ;
#36 = CC_DESIGN_APPROVAL ( #79, ( #34 ) ) ;
#37 = EDGE_LOOP ( 'NONE', ( #193, #83 ) ) ;
#38 = VERTEX_POINT ( 'NONE', #219 ) ;
#39 = DIRECTION ( 'NONE',  ( 0.000000000000000000, 0.000000000000000000, 1.000000000000000000 ) ) ;
#40 = ORIENTED_EDGE ( 'NONE', *, *, #124, .T. ) ;
#41 = PERSON_AND_ORGANIZATION ( #45, #243 ) ;
#42 = ORIENTED_EDGE ( 'NONE', *, *, #227, .T. ) ;
#43 = PRODUCT_DEFINITION_SHAPE ( 'NONE', 'NONE',  #34 ) ;
#44 = CARTESIAN_POINT ( 'NONE',  ( 0.000000000000000000, 0.000000000000000000, 8.000000000000000000 ) ) ;
#45 = PERSON ( 'NEURÈENÝ', 'NEURÈENÝ', 'NEURÈENÝ', ('NEURÈENÝ'), ('NEURÈENÝ'), ('NEURÈENÝ') ) ;
#46 = CARTESIAN_POINT ( 'NONE',  ( 0.000000000000000000, 0.000000000000000000, 8.000000000000000000 ) ) ;
#47 = DIRECTION ( 'NONE',  ( -1.000000000000000000, 0.000000000000000000, 0.000000000000000000 ) ) ;
#48 = AXIS2_PLACEMENT_3D ( 'NONE', #126, #198, #49 ) ;
#49 = DIRECTION ( 'NONE',  ( 1.000000000000000000, 0.000000000000000000, 0.000000000000000000 ) ) ;
#50 = CC_DESIGN_DATE_AND_TIME_ASSIGNMENT ( #6, #174, ( #34 ) ) ;
#51 = LINE ( 'NONE', #165, #226 ) ;
#52 = PERSON_AND_ORGANIZATION ( #45, #243 ) ;
#53 = EDGE_CURVE ( 'NONE', #125, #180, #130, .T. ) ;
#54 = APPLICATION_PROTOCOL_DEFINITION ( 'international standard', 'config_control_design', 1994, #122 ) ;
#55 = APPROVAL_DATE_TIME ( #57, #160 ) ;
#56 = ORIENTED_EDGE ( 'NONE', *, *, #105, .T. ) ;
#57 = DATE_AND_TIME ( #60, #178 ) ;
#58 = ORIENTED_EDGE ( 'NONE', *, *, #105, .F. ) ;
#59 = CARTESIAN_POINT ( 'NONE',  ( -10.00000000000000178, 0.000000000000000000, 8.000000000000000000 ) ) ;
#60 = CALENDAR_DATE ( 2023, 13, 2 ) ;
#61 = AXIS2_PLACEMENT_3D ( 'NONE', #108, #182, #10 ) ;
#62 = LINE ( 'NONE', #217, #114 ) ;
#63 = DIRECTION ( 'NONE',  ( 0.000000000000000000, 0.000000000000000000, 1.000000000000000000 ) ) ;
#64 = CARTESIAN_POINT ( 'NONE',  ( -10.00000000000000178, 0.000000000000000000, 160.0000000000000000 ) ) ;
#65 = DIRECTION ( 'NONE',  ( -0.000000000000000000, -0.000000000000000000, -1.000000000000000000 ) ) ;
#66 = CC_DESIGN_APPROVAL ( #11, ( #223 ) ) ;
#67 = CARTESIAN_POINT ( 'NONE',  ( 0.000000000000000000, 0.000000000000000000, 160.0000000000000000 ) ) ;
#68 = MANIFOLD_SOLID_BREP ( 'Pøidat vysunutím3', #106 ) ;
#69 = CARTESIAN_POINT ( 'NONE',  ( 0.000000000000000000, 0.000000000000000000, 8.000000000000000000 ) ) ;
#70 = DATE_AND_TIME ( #166, #131 ) ;
#71 = DIRECTION ( 'NONE',  ( -0.000000000000000000, -0.000000000000000000, -1.000000000000000000 ) ) ;
#72 = PERSON_AND_ORGANIZATION ( #45, #243 ) ;
#73 = EDGE_LOOP ( 'NONE', ( #58, #173, #176, #100 ) ) ;
#74 = CYLINDRICAL_SURFACE ( 'NONE', #25, 13.00000000000000178 ) ;
#75 = CIRCLE ( 'NONE', #123, 13.00000000000000178 ) ;
#76 = PERSON_AND_ORGANIZATION_ROLE ( 'design_owner' ) ;
#77 = AXIS2_PLACEMENT_3D ( 'NONE', #67, #210, #30 ) ;
#78 = ORIENTED_EDGE ( 'NONE', *, *, #9, .T. ) ;
#79 = APPROVAL ( #102, 'NEURÈENÝ' ) ;
#80 = ORIENTED_EDGE ( 'NONE', *, *, #238, .T. ) ;
#81 = APPROVAL_ROLE ( '' ) ;
#82 = APPROVAL_STATUS ( 'not_yet_approved' ) ;
#83 = ORIENTED_EDGE ( 'NONE', *, *, #23, .F. ) ;
#84 = PERSON_AND_ORGANIZATION ( #45, #243 ) ;
#85 = PRODUCT ( '226f', '226f', '', ( #177 ) ) ;
#86 = CC_DESIGN_SECURITY_CLASSIFICATION ( #211, ( #223 ) ) ;
#87 = PRODUCT_RELATED_PRODUCT_CATEGORY ( 'detail', '', ( #85 ) ) ;
#88 = PLANE ( 'NONE',  #96 ) ;
#89 = VERTEX_POINT ( 'NONE', #13 ) ;
#90 = DATE_TIME_ROLE ( 'classification_date' ) ;
#91 = DATE_AND_TIME ( #224, #154 ) ;
#92 = APPROVAL_PERSON_ORGANIZATION ( #41, #11, #237 ) ;
#93 = LINE ( 'NONE', #94, #152 ) ;
#94 = CARTESIAN_POINT ( 'NONE',  ( -13.00000000000000178, 0.000000000000000000, 8.000000000000000000 ) ) ;
#95 = DIRECTION ( 'NONE',  ( -0.000000000000000000, -0.000000000000000000, -1.000000000000000000 ) ) ;
#96 = AXIS2_PLACEMENT_3D ( 'NONE', #46, #8, #197 ) ;
#97 = CARTESIAN_POINT ( 'NONE',  ( 0.000000000000000000, 0.000000000000000000, 8.000000000000000000 ) ) ;
#98 = EDGE_LOOP ( 'NONE', ( #236, #121, #212, #138 ) ) ;
#99 = DIRECTION ( 'NONE',  ( 1.000000000000000000, 0.000000000000000000, 0.000000000000000000 ) ) ;
#100 = ORIENTED_EDGE ( 'NONE', *, *, #113, .F. ) ;
#101 = AXIS2_PLACEMENT_3D ( 'NONE', #69, #163, #164 ) ;
#102 = APPROVAL_STATUS ( 'not_yet_approved' ) ;
#103 = PERSON_AND_ORGANIZATION ( #45, #243 ) ;
#104 = ORIENTED_EDGE ( 'NONE', *, *, #227, .F. ) ;
#105 = EDGE_CURVE ( 'NONE', #172, #7, #188, .T. ) ;
#106 = CLOSED_SHELL ( 'NONE', ( #246, #169, #158, #186, #208, #17, #141 ) ) ;
#107 = ORIENTED_EDGE ( 'NONE', *, *, #124, .F. ) ;
#108 = CARTESIAN_POINT ( 'NONE',  ( 0.000000000000000000, 0.000000000000000000, 160.0000000000000000 ) ) ;
#109 = DIRECTION ( 'NONE',  ( 1.000000000000000000, 0.000000000000000000, 0.000000000000000000 ) ) ;
#110 = DESIGN_CONTEXT ( 'detailed design', #189, 'design' ) ;
#111 = AXIS2_PLACEMENT_3D ( 'NONE', #187, #39, #117 ) ;
#112 =( LENGTH_UNIT ( ) NAMED_UNIT ( * ) SI_UNIT ( .MILLI., .METRE. ) );
#113 = EDGE_CURVE ( 'NONE', #7, #180, #93, .T. ) ;
#114 = VECTOR ( 'NONE', #24, 1000.000000000000000 ) ;
#115 = PERSON_AND_ORGANIZATION_ROLE ( 'creator' ) ;
#116 = DIRECTION ( 'NONE',  ( 1.000000000000000000, 0.000000000000000000, -0.000000000000000000 ) ) ;
#117 = DIRECTION ( 'NONE',  ( 1.000000000000000000, 0.000000000000000000, 0.000000000000000000 ) ) ;
#118 = VECTOR ( 'NONE', #71, 1000.000000000000000 ) ;
#119 = EDGE_CURVE ( 'NONE', #7, #172, #75, .T. ) ;
#120 = CARTESIAN_POINT ( 'NONE',  ( 0.000000000000000000, 0.000000000000000000, 0.000000000000000000 ) ) ;
#121 = ORIENTED_EDGE ( 'NONE', *, *, #119, .F. ) ;
#122 = APPLICATION_CONTEXT ( 'configuration controlled 3d designs of mechanical parts and assemblies' ) ;
#123 = AXIS2_PLACEMENT_3D ( 'NONE', #15, #253, #149 ) ;
#124 = EDGE_CURVE ( 'NONE', #38, #89, #51, .T. ) ;
#125 = VERTEX_POINT ( 'NONE', #167 ) ;
#126 = CARTESIAN_POINT ( 'NONE',  ( 0.000000000000000000, 0.000000000000000000, 0.000000000000000000 ) ) ;
#127 = AXIS2_PLACEMENT_3D ( 'NONE', #209, #31, #116 ) ;
#128 = DIRECTION ( 'NONE',  ( 0.000000000000000000, 0.000000000000000000, 1.000000000000000000 ) ) ;
#129 = EDGE_CURVE ( 'NONE', #172, #125, #206, .T. ) ;
#130 = CIRCLE ( 'NONE', #48, 13.00000000000000178 ) ;
#131 = LOCAL_TIME ( 9, 44, 30.00000000000000000, #230 ) ;
#132 = PERSON_AND_ORGANIZATION ( #45, #243 ) ;
#133 = DIRECTION ( 'NONE',  ( -0.000000000000000000, -0.000000000000000000, -1.000000000000000000 ) ) ;
#134 = PLANE ( 'NONE',  #127 ) ;
#135 = DATE_AND_TIME ( #168, #170 ) ;
#136 =( NAMED_UNIT ( * ) PLANE_ANGLE_UNIT ( ) SI_UNIT ( $, .RADIAN. ) );
#137 = CIRCLE ( 'NONE', #240, 10.00000000000000178 ) ;
#138 = ORIENTED_EDGE ( 'NONE', *, *, #145, .T. ) ;
#139 = CC_DESIGN_PERSON_AND_ORGANIZATION_ASSIGNMENT ( #132, #185, ( #223 ) ) ;
#140 = COORDINATED_UNIVERSAL_TIME_OFFSET ( 1, 0, .AHEAD. ) ;
#141 = ADVANCED_FACE ( 'NONE', ( #150 ), #134, .T. ) ;
#142 = DIRECTION ( 'NONE',  ( -1.000000000000000000, 0.000000000000000000, 0.000000000000000000 ) ) ;
#143 = AXIS2_PLACEMENT_3D ( 'NONE', #97, #171, #20 ) ;
#144 = DIRECTION ( 'NONE',  ( 1.000000000000000000, 0.000000000000000000, 0.000000000000000000 ) ) ;
#145 = EDGE_CURVE ( 'NONE', #180, #125, #33, .T. ) ;
#146 =( GEOMETRIC_REPRESENTATION_CONTEXT ( 3 ) GLOBAL_UNCERTAINTY_ASSIGNED_CONTEXT ( ( #148 ) ) GLOBAL_UNIT_ASSIGNED_CONTEXT ( ( #112, #136, #228 ) ) REPRESENTATION_CONTEXT ( 'NONE', 'WORKASPACE' ) );
#147 = CARTESIAN_POINT ( 'NONE',  ( 0.000000000000000000, 0.000000000000000000, 8.000000000000000000 ) ) ;
#148 = UNCERTAINTY_MEASURE_WITH_UNIT (LENGTH_MEASURE( 1.000000000000000082E-05 ), #112, 'distance_accuracy_value', 'NONE');
#149 = DIRECTION ( 'NONE',  ( 1.000000000000000000, 0.000000000000000000, 0.000000000000000000 ) ) ;
#150 = FACE_OUTER_BOUND ( 'NONE', #18, .T. ) ;
#151 = CC_DESIGN_PERSON_AND_ORGANIZATION_ASSIGNMENT ( #72, #232, ( #211 ) ) ;
#152 = VECTOR ( 'NONE', #95, 1000.000000000000000 ) ;
#153 = PERSON_AND_ORGANIZATION_ROLE ( 'creator' ) ;
#154 = LOCAL_TIME ( 9, 44, 30.00000000000000000, #29 ) ;
#155 = ORIENTED_EDGE ( 'NONE', *, *, #145, .F. ) ;
#156 = EDGE_LOOP ( 'NONE', ( #4, #40, #191, #104 ) ) ;
#157 = DIRECTION ( 'NONE',  ( -0.000000000000000000, -0.000000000000000000, -1.000000000000000000 ) ) ;
#158 = ADVANCED_FACE ( 'NONE', ( #195 ), #190, .T. ) ;
#159 = EDGE_LOOP ( 'NONE', ( #19, #56 ) ) ;
#160 = APPROVAL ( #82, 'NEURÈENÝ' ) ;
#161 = FACE_OUTER_BOUND ( 'NONE', #196, .T. ) ;
#162 = PERSON_AND_ORGANIZATION ( #45, #243 ) ;
#163 = DIRECTION ( 'NONE',  ( 0.000000000000000000, 0.000000000000000000, 1.000000000000000000 ) ) ;
#164 = DIRECTION ( 'NONE',  ( 1.000000000000000000, 0.000000000000000000, 0.000000000000000000 ) ) ;
#165 = CARTESIAN_POINT ( 'NONE',  ( 10.00000000000000178, 1.224646799147353454E-15, 160.0000000000000000 ) ) ;
#166 = CALENDAR_DATE ( 2023, 13, 2 ) ;
#167 = CARTESIAN_POINT ( 'NONE',  ( 13.00000000000000178, 1.592040838891559293E-15, 0.000000000000000000 ) ) ;
#168 = CALENDAR_DATE ( 2023, 13, 2 ) ;
#169 = ADVANCED_FACE ( 'NONE', ( #35 ), #74, .T. ) ;
#170 = LOCAL_TIME ( 9, 44, 30.00000000000000000, #16 ) ;
#171 = DIRECTION ( 'NONE',  ( -0.000000000000000000, -0.000000000000000000, -1.000000000000000000 ) ) ;
#172 = VERTEX_POINT ( 'NONE', #245 ) ;
#173 = ORIENTED_EDGE ( 'NONE', *, *, #129, .T. ) ;
#174 = DATE_TIME_ROLE ( 'creation_date' ) ;
#175 = CARTESIAN_POINT ( 'NONE',  ( 0.000000000000000000, 0.000000000000000000, 8.000000000000000000 ) ) ;
#176 = ORIENTED_EDGE ( 'NONE', *, *, #53, .T. ) ;
#177 = MECHANICAL_CONTEXT ( 'NONE', #122, 'mechanical' ) ;
#178 = LOCAL_TIME ( 9, 44, 30.00000000000000000, #140 ) ;
#179 = ORIENTED_EDGE ( 'NONE', *, *, #53, .F. ) ;
#180 = VERTEX_POINT ( 'NONE', #28 ) ;
#181 = PERSON_AND_ORGANIZATION ( #45, #243 ) ;
#182 = DIRECTION ( 'NONE',  ( 0.000000000000000000, 0.000000000000000000, 1.000000000000000000 ) ) ;
#183 = CARTESIAN_POINT ( 'NONE',  ( 0.000000000000000000, 0.000000000000000000, 160.0000000000000000 ) ) ;
#184 = APPROVAL_DATE_TIME ( #70, #11 ) ;
#185 = PERSON_AND_ORGANIZATION_ROLE ( 'design_supplier' ) ;
#186 = ADVANCED_FACE ( 'NONE', ( #244, #241 ), #88, .T. ) ;
#187 = CARTESIAN_POINT ( 'NONE',  ( 0.000000000000000000, 0.000000000000000000, 0.000000000000000000 ) ) ;
#188 = CIRCLE ( 'NONE', #101, 13.00000000000000178 ) ;
#189 = APPLICATION_CONTEXT ( 'configuration controlled 3d designs of mechanical parts and assemblies' ) ;
#190 = CYLINDRICAL_SURFACE ( 'NONE', #143, 13.00000000000000178 ) ;
#191 = ORIENTED_EDGE ( 'NONE', *, *, #23, .T. ) ;
#192 = APPROVAL_STATUS ( 'not_yet_approved' ) ;
#193 = ORIENTED_EDGE ( 'NONE', *, *, #9, .F. ) ;
#194 = CIRCLE ( 'NONE', #12, 10.00000000000000178 ) ;
#195 = FACE_OUTER_BOUND ( 'NONE', #98, .T. ) ;
#196 = EDGE_LOOP ( 'NONE', ( #107, #213, #42, #78 ) ) ;
#197 = DIRECTION ( 'NONE',  ( 1.000000000000000000, 0.000000000000000000, -0.000000000000000000 ) ) ;
#198 = DIRECTION ( 'NONE',  ( 0.000000000000000000, 0.000000000000000000, 1.000000000000000000 ) ) ;
#199 = PLANE ( 'NONE',  #21 ) ;
#200 = DIRECTION ( 'NONE',  ( 0.000000000000000000, 0.000000000000000000, 1.000000000000000000 ) ) ;
#201 = DIRECTION ( 'NONE',  ( 0.000000000000000000, 0.000000000000000000, 1.000000000000000000 ) ) ;
#202 = CC_DESIGN_DATE_AND_TIME_ASSIGNMENT ( #135, #90, ( #211 ) ) ;
#203 = DIRECTION ( 'NONE',  ( 1.000000000000000000, 0.000000000000000000, -0.000000000000000000 ) ) ;
#204 = AXIS2_PLACEMENT_3D ( 'NONE', #183, #65, #47 ) ;
#205 = CIRCLE ( 'NONE', #61, 10.00000000000000178 ) ;
#206 = LINE ( 'NONE', #255, #118 ) ;
#207 = LOCAL_TIME ( 9, 44, 30.00000000000000000, #5 ) ;
#208 = ADVANCED_FACE ( 'NONE', ( #249 ), #199, .F. ) ;
#209 = CARTESIAN_POINT ( 'NONE',  ( 0.000000000000000000, 0.000000000000000000, 160.0000000000000000 ) ) ;
#210 = DIRECTION ( 'NONE',  ( -0.000000000000000000, -0.000000000000000000, -1.000000000000000000 ) ) ;
#211 = SECURITY_CLASSIFICATION ( '', '', #1 ) ;
#212 = ORIENTED_EDGE ( 'NONE', *, *, #113, .T. ) ;
#213 = ORIENTED_EDGE ( 'NONE', *, *, #238, .F. ) ;
#214 = VERTEX_POINT ( 'NONE', #59 ) ;
#215 = EDGE_CURVE ( 'NONE', #38, #3, #194, .T. ) ;
#216 = APPROVAL_PERSON_ORGANIZATION ( #103, #79, #81 ) ;
#217 = CARTESIAN_POINT ( 'NONE',  ( -10.00000000000000178, 0.000000000000000000, 160.0000000000000000 ) ) ;
#218 = SHAPE_DEFINITION_REPRESENTATION ( #43, #231 ) ;
#219 = CARTESIAN_POINT ( 'NONE',  ( 10.00000000000000178, 1.224646799147353454E-15, 160.0000000000000000 ) ) ;
#220 = APPROVAL_DATE_TIME ( #91, #79 ) ;
#221 = CARTESIAN_POINT ( 'NONE',  ( 0.000000000000000000, 0.000000000000000000, 160.0000000000000000 ) ) ;
#222 = CARTESIAN_POINT ( 'NONE',  ( -13.00000000000000178, 0.000000000000000000, 8.000000000000000000 ) ) ;
#223 = PRODUCT_DEFINITION_FORMATION_WITH_SPECIFIED_SOURCE ( 'LIBOVOLNÝ', '', #85, .NOT_KNOWN. ) ;
#224 = CALENDAR_DATE ( 2023, 13, 2 ) ;
#225 = CARTESIAN_POINT ( 'NONE',  ( 0.000000000000000000, 0.000000000000000000, 0.000000000000000000 ) ) ;
#226 = VECTOR ( 'NONE', #133, 1000.000000000000000 ) ;
#227 = EDGE_CURVE ( 'NONE', #3, #214, #62, .T. ) ;
#228 =( NAMED_UNIT ( * ) SI_UNIT ( $, .STERADIAN. ) SOLID_ANGLE_UNIT ( ) );
#229 = APPROVAL_PERSON_ORGANIZATION ( #162, #160, #233 ) ;
#230 = COORDINATED_UNIVERSAL_TIME_OFFSET ( 1, 0, .AHEAD. ) ;
#231 = ADVANCED_BREP_SHAPE_REPRESENTATION ( '226f', ( #68, #14 ), #146 ) ;
#232 = PERSON_AND_ORGANIZATION_ROLE ( 'classification_officer' ) ;
#233 = APPROVAL_ROLE ( '' ) ;
#234 = ORIENTED_EDGE ( 'NONE', *, *, #215, .T. ) ;
#235 = CALENDAR_DATE ( 2023, 13, 2 ) ;
#236 = ORIENTED_EDGE ( 'NONE', *, *, #129, .F. ) ;
#237 = APPROVAL_ROLE ( '' ) ;
#238 = EDGE_CURVE ( 'NONE', #3, #38, #205, .T. ) ;
#239 = EDGE_LOOP ( 'NONE', ( #155, #179 ) ) ;
#240 = AXIS2_PLACEMENT_3D ( 'NONE', #147, #201, #144 ) ;
#241 = FACE_OUTER_BOUND ( 'NONE', #159, .T. ) ;
#242 = APPLICATION_PROTOCOL_DEFINITION ( 'international standard', 'config_control_design', 1994, #189 ) ;
#243 = ORGANIZATION ( 'NEURÈENÝ', 'NEURÈENÝ', '' ) ;
#244 = FACE_BOUND ( 'NONE', #37, .T. ) ;
#245 = CARTESIAN_POINT ( 'NONE',  ( 13.00000000000000178, 1.592040838891559293E-15, 8.000000000000000000 ) ) ;
#246 = ADVANCED_FACE ( 'NONE', ( #247 ), #32, .T. ) ;
#247 = FACE_OUTER_BOUND ( 'NONE', #156, .T. ) ;
#248 = CC_DESIGN_APPROVAL ( #160, ( #211 ) ) ;
#249 = FACE_OUTER_BOUND ( 'NONE', #239, .T. ) ;
#250 = CC_DESIGN_PERSON_AND_ORGANIZATION_ASSIGNMENT ( #52, #115, ( #223 ) ) ;
#251 = CYLINDRICAL_SURFACE ( 'NONE', #204, 10.00000000000000178 ) ;
#252 = AXIS2_PLACEMENT_3D ( 'NONE', #44, #128, #109 ) ;
#253 = DIRECTION ( 'NONE',  ( 0.000000000000000000, 0.000000000000000000, 1.000000000000000000 ) ) ;
#254 = CC_DESIGN_PERSON_AND_ORGANIZATION_ASSIGNMENT ( #181, #153, ( #34 ) ) ;
#255 = CARTESIAN_POINT ( 'NONE',  ( 13.00000000000000178, 1.592040838891559293E-15, 8.000000000000000000 ) ) ;
ENDSEC;
END-ISO-10303-21;
