ISO-10303-21;
HEADER;
FILE_DESCRIPTION (( 'STEP AP203' ),
    '1' );
FILE_NAME ('bf82.STEP',
    '2023-02-13T14:51:20',
    ( '' ),
    ( '' ),
    'SwSTEP 2.0',
    'SolidWorks 2019',
    '' );
FILE_SCHEMA (( 'CONFIG_CONTROL_DESIGN' ));
ENDSEC;

DATA;
#1 = AXIS2_PLACEMENT_3D ( 'NONE', #183, #184, #94 ) ;
#2 = EDGE_CURVE ( 'NONE', #219, #42, #64, .T. ) ;
#3 = DIRECTION ( 'NONE',  ( -0.000000000000000000, -0.000000000000000000, -1.000000000000000000 ) ) ;
#4 = VERTEX_POINT ( 'NONE', #45 ) ;
#5 = CARTESIAN_POINT ( 'NONE',  ( 0.000000000000000000, 0.000000000000000000, 0.000000000000000000 ) ) ;
#6 = DIRECTION ( 'NONE',  ( 1.000000000000000000, 0.000000000000000000, -0.000000000000000000 ) ) ;
#7 = EDGE_LOOP ( 'NONE', ( #163, #86 ) ) ;
#8 = CARTESIAN_POINT ( 'NONE',  ( 0.000000000000000000, 0.000000000000000000, 250.0000000000000000 ) ) ;
#9 = ORIENTED_EDGE ( 'NONE', *, *, #129, .F. ) ;
#10 = LINE ( 'NONE', #165, #118 ) ;
#11 = PERSON_AND_ORGANIZATION_ROLE ( 'creator' ) ;
#12 = COORDINATED_UNIVERSAL_TIME_OFFSET ( 1, 0, .AHEAD. ) ;
#13 = CC_DESIGN_PERSON_AND_ORGANIZATION_ASSIGNMENT ( #203, #11, ( #211 ) ) ;
#14 = DIRECTION ( 'NONE',  ( 0.000000000000000000, 0.000000000000000000, 1.000000000000000000 ) ) ;
#15 = ADVANCED_FACE ( 'NONE', ( #209 ), #31, .T. ) ;
#16 = EDGE_CURVE ( 'NONE', #182, #234, #10, .T. ) ;
#17 = AXIS2_PLACEMENT_3D ( 'NONE', #8, #233, #141 ) ;
#18 = CARTESIAN_POINT ( 'NONE',  ( 0.000000000000000000, 0.000000000000000000, 5.000000000000000000 ) ) ;
#19 = FACE_OUTER_BOUND ( 'NONE', #39, .T. ) ;
#20 = CARTESIAN_POINT ( 'NONE',  ( 0.000000000000000000, 0.000000000000000000, 5.000000000000000000 ) ) ;
#21 = PRODUCT_DEFINITION ( 'NEZNÁMÝ', '', #211, #90 ) ;
#22 = ORIENTED_EDGE ( 'NONE', *, *, #249, .T. ) ;
#23 = AXIS2_PLACEMENT_3D ( 'NONE', #195, #125, #68 ) ;
#24 = DIRECTION ( 'NONE',  ( 1.000000000000000000, 0.000000000000000000, 0.000000000000000000 ) ) ;
#25 = CIRCLE ( 'NONE', #40, 6.000000000000000888 ) ;
#26 = ORIENTED_EDGE ( 'NONE', *, *, #52, .T. ) ;
#27 = PERSON_AND_ORGANIZATION ( #216, #140 ) ;
#28 = DATE_AND_TIME ( #152, #191 ) ;
#29 = LOCAL_TIME ( 15, 51, 20.00000000000000000, #114 ) ;
#30 = APPLICATION_PROTOCOL_DEFINITION ( 'international standard', 'config_control_design', 1994, #99 ) ;
#31 = CYLINDRICAL_SURFACE ( 'NONE', #1, 3.500000000000000000 ) ;
#32 = CC_DESIGN_DATE_AND_TIME_ASSIGNMENT ( #171, #133, ( #21 ) ) ;
#33 = APPROVAL_ROLE ( '' ) ;
#34 = DATE_AND_TIME ( #185, #29 ) ;
#35 = CARTESIAN_POINT ( 'NONE',  ( 0.000000000000000000, 0.000000000000000000, 0.000000000000000000 ) ) ;
#36 = AXIS2_PLACEMENT_3D ( 'NONE', #38, #63, #87 ) ;
#37 = CARTESIAN_POINT ( 'NONE',  ( 0.000000000000000000, 0.000000000000000000, 5.000000000000000000 ) ) ;
#38 = CARTESIAN_POINT ( 'NONE',  ( 0.000000000000000000, 0.000000000000000000, 250.0000000000000000 ) ) ;
#39 = EDGE_LOOP ( 'NONE', ( #9, #111, #126, #84 ) ) ;
#40 = AXIS2_PLACEMENT_3D ( 'NONE', #5, #85, #162 ) ;
#41 = DIRECTION ( 'NONE',  ( 1.000000000000000000, 0.000000000000000000, 0.000000000000000000 ) ) ;
#42 = VERTEX_POINT ( 'NONE', #149 ) ;
#43 = CLOSED_SHELL ( 'NONE', ( #15, #204, #150, #77, #108, #72, #81 ) ) ;
#44 = DIRECTION ( 'NONE',  ( 0.000000000000000000, 0.000000000000000000, 1.000000000000000000 ) ) ;
#45 = CARTESIAN_POINT ( 'NONE',  ( -6.000000000000000888, 0.000000000000000000, 0.000000000000000000 ) ) ;
#46 = SHAPE_DEFINITION_REPRESENTATION ( #189, #119 ) ;
#47 = PLANE ( 'NONE',  #17 ) ;
#48 = APPROVAL_PERSON_ORGANIZATION ( #116, #56, #208 ) ;
#49 = ORIENTED_EDGE ( 'NONE', *, *, #129, .T. ) ;
#50 = PERSON_AND_ORGANIZATION ( #216, #140 ) ;
#51 = DIRECTION ( 'NONE',  ( 1.000000000000000000, 0.000000000000000000, 0.000000000000000000 ) ) ;
#52 = EDGE_CURVE ( 'NONE', #160, #234, #188, .T. ) ;
#53 = CALENDAR_DATE ( 2023, 13, 2 ) ;
#54 = PERSON_AND_ORGANIZATION_ROLE ( 'design_owner' ) ;
#55 = CARTESIAN_POINT ( 'NONE',  ( 0.000000000000000000, 0.000000000000000000, 5.000000000000000000 ) ) ;
#56 = APPROVAL ( #248, 'NEURÈENÝ' ) ;
#57 = DATE_AND_TIME ( #218, #115 ) ;
#58 = CARTESIAN_POINT ( 'NONE',  ( 0.000000000000000000, 0.000000000000000000, 250.0000000000000000 ) ) ;
#59 = EDGE_LOOP ( 'NONE', ( #157, #214 ) ) ;
#60 = EDGE_CURVE ( 'NONE', #105, #4, #71, .T. ) ;
#61 = DIRECTION ( 'NONE',  ( 1.000000000000000000, 0.000000000000000000, 0.000000000000000000 ) ) ;
#62 = EDGE_LOOP ( 'NONE', ( #244, #194, #202, #221 ) ) ;
#63 = DIRECTION ( 'NONE',  ( 0.000000000000000000, 0.000000000000000000, 1.000000000000000000 ) ) ;
#64 = LINE ( 'NONE', #88, #231 ) ;
#65 = AXIS2_PLACEMENT_3D ( 'NONE', #83, #181, #110 ) ;
#66 = FACE_OUTER_BOUND ( 'NONE', #200, .T. ) ;
#67 = EDGE_CURVE ( 'NONE', #105, #219, #247, .T. ) ;
#68 = DIRECTION ( 'NONE',  ( 1.000000000000000000, 0.000000000000000000, 0.000000000000000000 ) ) ;
#69 = EDGE_LOOP ( 'NONE', ( #238, #49 ) ) ;
#70 = AXIS2_PLACEMENT_3D ( 'NONE', #174, #3, #104 ) ;
#71 = LINE ( 'NONE', #146, #117 ) ;
#72 = ADVANCED_FACE ( 'NONE', ( #66 ), #144, .T. ) ;
#73 = DIRECTION ( 'NONE',  ( -0.000000000000000000, -0.000000000000000000, -1.000000000000000000 ) ) ;
#74 = LOCAL_TIME ( 15, 51, 20.00000000000000000, #228 ) ;
#75 = DIRECTION ( 'NONE',  ( 1.000000000000000000, 0.000000000000000000, 0.000000000000000000 ) ) ;
#76 = PRODUCT ( 'bf82', 'bf82', '', ( #79 ) ) ;
#77 = ADVANCED_FACE ( 'NONE', ( #220, #212 ), #127, .T. ) ;
#78 =( NAMED_UNIT ( * ) SI_UNIT ( $, .STERADIAN. ) SOLID_ANGLE_UNIT ( ) );
#79 = MECHANICAL_CONTEXT ( 'NONE', #147, 'mechanical' ) ;
#80 = AXIS2_PLACEMENT_3D ( 'NONE', #227, #91, #245 ) ;
#81 = ADVANCED_FACE ( 'NONE', ( #215 ), #47, .T. ) ;
#82 = DIRECTION ( 'NONE',  ( 0.000000000000000000, 0.000000000000000000, 1.000000000000000000 ) ) ;
#83 = CARTESIAN_POINT ( 'NONE',  ( 0.000000000000000000, 0.000000000000000000, 250.0000000000000000 ) ) ;
#84 = ORIENTED_EDGE ( 'NONE', *, *, #60, .F. ) ;
#85 = DIRECTION ( 'NONE',  ( 0.000000000000000000, 0.000000000000000000, 1.000000000000000000 ) ) ;
#86 = ORIENTED_EDGE ( 'NONE', *, *, #113, .T. ) ;
#87 = DIRECTION ( 'NONE',  ( 1.000000000000000000, 0.000000000000000000, 0.000000000000000000 ) ) ;
#88 = CARTESIAN_POINT ( 'NONE',  ( 6.000000000000000888, 7.347880794884120722E-16, 5.000000000000000000 ) ) ;
#89 = LINE ( 'NONE', #164, #251 ) ;
#90 = DESIGN_CONTEXT ( 'detailed design', #99, 'design' ) ;
#91 = DIRECTION ( 'NONE',  ( 0.000000000000000000, 0.000000000000000000, 1.000000000000000000 ) ) ;
#92 = CC_DESIGN_SECURITY_CLASSIFICATION ( #154, ( #211 ) ) ;
#93 = PRODUCT_RELATED_PRODUCT_CATEGORY ( 'detail', '', ( #76 ) ) ;
#94 = DIRECTION ( 'NONE',  ( -1.000000000000000000, 0.000000000000000000, 0.000000000000000000 ) ) ;
#95 = DATE_AND_TIME ( #169, #109 ) ;
#96 = APPROVAL ( #155, 'NEURÈENÝ' ) ;
#97 = APPROVAL_PERSON_ORGANIZATION ( #98, #96, #101 ) ;
#98 = PERSON_AND_ORGANIZATION ( #216, #140 ) ;
#99 = APPLICATION_CONTEXT ( 'configuration controlled 3d designs of mechanical parts and assemblies' ) ;
#100 = CARTESIAN_POINT ( 'NONE',  ( -6.000000000000000888, 0.000000000000000000, 5.000000000000000000 ) ) ;
#101 = APPROVAL_ROLE ( '' ) ;
#102 = CYLINDRICAL_SURFACE ( 'NONE', #70, 6.000000000000000888 ) ;
#103 = ORIENTED_EDGE ( 'NONE', *, *, #16, .T. ) ;
#104 = DIRECTION ( 'NONE',  ( -1.000000000000000000, 0.000000000000000000, 0.000000000000000000 ) ) ;
#105 = VERTEX_POINT ( 'NONE', #100 ) ;
#106 = CARTESIAN_POINT ( 'NONE',  ( 0.000000000000000000, 0.000000000000000000, 0.000000000000000000 ) ) ;
#107 = ORIENTED_EDGE ( 'NONE', *, *, #249, .F. ) ;
#108 = ADVANCED_FACE ( 'NONE', ( #178 ), #138, .F. ) ;
#109 = LOCAL_TIME ( 15, 51, 20.00000000000000000, #12 ) ;
#110 = DIRECTION ( 'NONE',  ( -1.000000000000000000, 0.000000000000000000, 0.000000000000000000 ) ) ;
#111 = ORIENTED_EDGE ( 'NONE', *, *, #2, .T. ) ;
#112 = COORDINATED_UNIVERSAL_TIME_OFFSET ( 1, 0, .AHEAD. ) ;
#113 = EDGE_CURVE ( 'NONE', #176, #182, #136, .T. ) ;
#114 = COORDINATED_UNIVERSAL_TIME_OFFSET ( 1, 0, .AHEAD. ) ;
#115 = LOCAL_TIME ( 15, 51, 20.00000000000000000, #112 ) ;
#116 = PERSON_AND_ORGANIZATION ( #216, #140 ) ;
#117 = VECTOR ( 'NONE', #224, 1000.000000000000000 ) ;
#118 = VECTOR ( 'NONE', #73, 1000.000000000000000 ) ;
#119 = ADVANCED_BREP_SHAPE_REPRESENTATION ( 'bf82', ( #158, #201 ), #186 ) ;
#120 = EDGE_CURVE ( 'NONE', #4, #42, #177, .T. ) ;
#121 = AXIS2_PLACEMENT_3D ( 'NONE', #206, #14, #51 ) ;
#122 = EDGE_CURVE ( 'NONE', #182, #176, #197, .T. ) ;
#123 = DIRECTION ( 'NONE',  ( -0.000000000000000000, -0.000000000000000000, -1.000000000000000000 ) ) ;
#124 = CARTESIAN_POINT ( 'NONE',  ( 3.500000000000000000, 4.286263797015736595E-16, 250.0000000000000000 ) ) ;
#125 = DIRECTION ( 'NONE',  ( 0.000000000000000000, 0.000000000000000000, 1.000000000000000000 ) ) ;
#126 = ORIENTED_EDGE ( 'NONE', *, *, #232, .T. ) ;
#127 = PLANE ( 'NONE',  #205 ) ;
#128 = ORIENTED_EDGE ( 'NONE', *, *, #122, .F. ) ;
#129 = EDGE_CURVE ( 'NONE', #219, #105, #153, .T. ) ;
#130 = UNCERTAINTY_MEASURE_WITH_UNIT (LENGTH_MEASURE( 1.000000000000000082E-05 ), #252, 'distance_accuracy_value', 'NONE');
#131 = AXIS2_PLACEMENT_3D ( 'NONE', #106, #199, #6 ) ;
#132 = PERSON_AND_ORGANIZATION_ROLE ( 'classification_officer' ) ;
#133 = DATE_TIME_ROLE ( 'creation_date' ) ;
#134 = CC_DESIGN_APPROVAL ( #56, ( #211 ) ) ;
#135 = APPROVAL ( #168, 'NEURÈENÝ' ) ;
#136 = CIRCLE ( 'NONE', #236, 3.500000000000000000 ) ;
#137 = ORIENTED_EDGE ( 'NONE', *, *, #113, .F. ) ;
#138 = PLANE ( 'NONE',  #131 ) ;
#139 = ORIENTED_EDGE ( 'NONE', *, *, #145, .T. ) ;
#140 = ORGANIZATION ( 'NEURÈENÝ', 'NEURÈENÝ', '' ) ;
#141 = DIRECTION ( 'NONE',  ( 1.000000000000000000, 0.000000000000000000, -0.000000000000000000 ) ) ;
#142 = DIRECTION ( 'NONE',  ( -0.000000000000000000, -0.000000000000000000, -1.000000000000000000 ) ) ;
#143 = AXIS2_PLACEMENT_3D ( 'NONE', #55, #241, #61 ) ;
#144 = CYLINDRICAL_SURFACE ( 'NONE', #65, 3.500000000000000000 ) ;
#145 = EDGE_CURVE ( 'NONE', #176, #160, #89, .T. ) ;
#146 = CARTESIAN_POINT ( 'NONE',  ( -6.000000000000000888, 0.000000000000000000, 5.000000000000000000 ) ) ;
#147 = APPLICATION_CONTEXT ( 'configuration controlled 3d designs of mechanical parts and assemblies' ) ;
#148 = PERSON_AND_ORGANIZATION ( #216, #140 ) ;
#149 = CARTESIAN_POINT ( 'NONE',  ( 6.000000000000000888, 7.347880794884120722E-16, 0.000000000000000000 ) ) ;
#150 = ADVANCED_FACE ( 'NONE', ( #243 ), #173, .T. ) ;
#151 = PERSON_AND_ORGANIZATION_ROLE ( 'creator' ) ;
#152 = CALENDAR_DATE ( 2023, 13, 2 ) ;
#153 = CIRCLE ( 'NONE', #167, 6.000000000000000888 ) ;
#154 = SECURITY_CLASSIFICATION ( '', '', #246 ) ;
#155 = APPROVAL_STATUS ( 'not_yet_approved' ) ;
#156 = DIRECTION ( 'NONE',  ( 1.000000000000000000, 0.000000000000000000, -0.000000000000000000 ) ) ;
#157 = ORIENTED_EDGE ( 'NONE', *, *, #120, .F. ) ;
#158 = MANIFOLD_SOLID_BREP ( 'Pøidat vysunutím3', #43 ) ;
#159 = CARTESIAN_POINT ( 'NONE',  ( 3.500000000000000000, 4.286263797015736595E-16, 5.000000000000000000 ) ) ;
#160 = VERTEX_POINT ( 'NONE', #159 ) ;
#161 = CC_DESIGN_DATE_AND_TIME_ASSIGNMENT ( #34, #172, ( #154 ) ) ;
#162 = DIRECTION ( 'NONE',  ( 1.000000000000000000, 0.000000000000000000, 0.000000000000000000 ) ) ;
#163 = ORIENTED_EDGE ( 'NONE', *, *, #122, .T. ) ;
#164 = CARTESIAN_POINT ( 'NONE',  ( 3.500000000000000000, 4.286263797015736595E-16, 250.0000000000000000 ) ) ;
#165 = CARTESIAN_POINT ( 'NONE',  ( -3.500000000000000000, 0.000000000000000000, 250.0000000000000000 ) ) ;
#166 = PERSON_AND_ORGANIZATION_ROLE ( 'design_supplier' ) ;
#167 = AXIS2_PLACEMENT_3D ( 'NONE', #37, #44, #24 ) ;
#168 = APPROVAL_STATUS ( 'not_yet_approved' ) ;
#169 = CALENDAR_DATE ( 2023, 13, 2 ) ;
#170 = CIRCLE ( 'NONE', #121, 3.500000000000000000 ) ;
#171 = DATE_AND_TIME ( #53, #74 ) ;
#172 = DATE_TIME_ROLE ( 'classification_date' ) ;
#173 = CYLINDRICAL_SURFACE ( 'NONE', #180, 6.000000000000000888 ) ;
#174 = CARTESIAN_POINT ( 'NONE',  ( 0.000000000000000000, 0.000000000000000000, 5.000000000000000000 ) ) ;
#175 = CARTESIAN_POINT ( 'NONE',  ( 6.000000000000000888, 7.347880794884120722E-16, 5.000000000000000000 ) ) ;
#176 = VERTEX_POINT ( 'NONE', #124 ) ;
#177 = CIRCLE ( 'NONE', #23, 6.000000000000000888 ) ;
#178 = FACE_OUTER_BOUND ( 'NONE', #59, .T. ) ;
#179 = ORIENTED_EDGE ( 'NONE', *, *, #16, .F. ) ;
#180 = AXIS2_PLACEMENT_3D ( 'NONE', #20, #123, #213 ) ;
#181 = DIRECTION ( 'NONE',  ( -0.000000000000000000, -0.000000000000000000, -1.000000000000000000 ) ) ;
#182 = VERTEX_POINT ( 'NONE', #192 ) ;
#183 = CARTESIAN_POINT ( 'NONE',  ( 0.000000000000000000, 0.000000000000000000, 250.0000000000000000 ) ) ;
#184 = DIRECTION ( 'NONE',  ( -0.000000000000000000, -0.000000000000000000, -1.000000000000000000 ) ) ;
#185 = CALENDAR_DATE ( 2023, 13, 2 ) ;
#186 =( GEOMETRIC_REPRESENTATION_CONTEXT ( 3 ) GLOBAL_UNCERTAINTY_ASSIGNED_CONTEXT ( ( #130 ) ) GLOBAL_UNIT_ASSIGNED_CONTEXT ( ( #252, #222, #78 ) ) REPRESENTATION_CONTEXT ( 'NONE', 'WORKASPACE' ) );
#187 = APPROVAL_DATE_TIME ( #28, #56 ) ;
#188 = CIRCLE ( 'NONE', #80, 3.500000000000000000 ) ;
#189 = PRODUCT_DEFINITION_SHAPE ( 'NONE', 'NONE',  #21 ) ;
#190 = APPLICATION_PROTOCOL_DEFINITION ( 'international standard', 'config_control_design', 1994, #147 ) ;
#191 = LOCAL_TIME ( 15, 51, 20.00000000000000000, #253 ) ;
#192 = CARTESIAN_POINT ( 'NONE',  ( -3.500000000000000000, 0.000000000000000000, 250.0000000000000000 ) ) ;
#193 = DIRECTION ( 'NONE',  ( -0.000000000000000000, -0.000000000000000000, -1.000000000000000000 ) ) ;
#194 = ORIENTED_EDGE ( 'NONE', *, *, #67, .F. ) ;
#195 = CARTESIAN_POINT ( 'NONE',  ( 0.000000000000000000, 0.000000000000000000, 0.000000000000000000 ) ) ;
#196 = EDGE_LOOP ( 'NONE', ( #107, #217 ) ) ;
#197 = CIRCLE ( 'NONE', #36, 3.500000000000000000 ) ;
#198 = CC_DESIGN_PERSON_AND_ORGANIZATION_ASSIGNMENT ( #229, #54, ( #76 ) ) ;
#199 = DIRECTION ( 'NONE',  ( 0.000000000000000000, 0.000000000000000000, 1.000000000000000000 ) ) ;
#200 = EDGE_LOOP ( 'NONE', ( #240, #128, #103, #22 ) ) ;
#201 = AXIS2_PLACEMENT_3D ( 'NONE', #35, #255, #75 ) ;
#202 = ORIENTED_EDGE ( 'NONE', *, *, #60, .T. ) ;
#203 = PERSON_AND_ORGANIZATION ( #216, #140 ) ;
#204 = ADVANCED_FACE ( 'NONE', ( #19 ), #102, .T. ) ;
#205 = AXIS2_PLACEMENT_3D ( 'NONE', #18, #82, #156 ) ;
#206 = CARTESIAN_POINT ( 'NONE',  ( 0.000000000000000000, 0.000000000000000000, 5.000000000000000000 ) ) ;
#207 = CC_DESIGN_PERSON_AND_ORGANIZATION_ASSIGNMENT ( #27, #166, ( #211 ) ) ;
#208 = APPROVAL_ROLE ( '' ) ;
#209 = FACE_OUTER_BOUND ( 'NONE', #242, .T. ) ;
#210 = CC_DESIGN_PERSON_AND_ORGANIZATION_ASSIGNMENT ( #50, #132, ( #154 ) ) ;
#211 = PRODUCT_DEFINITION_FORMATION_WITH_SPECIFIED_SOURCE ( 'LIBOVOLNÝ', '', #76, .NOT_KNOWN. ) ;
#212 = FACE_OUTER_BOUND ( 'NONE', #69, .T. ) ;
#213 = DIRECTION ( 'NONE',  ( -1.000000000000000000, 0.000000000000000000, 0.000000000000000000 ) ) ;
#214 = ORIENTED_EDGE ( 'NONE', *, *, #232, .F. ) ;
#215 = FACE_OUTER_BOUND ( 'NONE', #7, .T. ) ;
#216 = PERSON ( 'NEURÈENÝ', 'NEURÈENÝ', 'NEURÈENÝ', ('NEURÈENÝ'), ('NEURÈENÝ'), ('NEURÈENÝ') ) ;
#217 = ORIENTED_EDGE ( 'NONE', *, *, #52, .F. ) ;
#218 = CALENDAR_DATE ( 2023, 13, 2 ) ;
#219 = VERTEX_POINT ( 'NONE', #175 ) ;
#220 = FACE_BOUND ( 'NONE', #196, .T. ) ;
#221 = ORIENTED_EDGE ( 'NONE', *, *, #120, .T. ) ;
#222 =( NAMED_UNIT ( * ) PLANE_ANGLE_UNIT ( ) SI_UNIT ( $, .RADIAN. ) );
#223 = CC_DESIGN_APPROVAL ( #135, ( #21 ) ) ;
#224 = DIRECTION ( 'NONE',  ( -0.000000000000000000, -0.000000000000000000, -1.000000000000000000 ) ) ;
#225 = PERSON_AND_ORGANIZATION ( #216, #140 ) ;
#226 = CC_DESIGN_PERSON_AND_ORGANIZATION_ASSIGNMENT ( #148, #151, ( #21 ) ) ;
#227 = CARTESIAN_POINT ( 'NONE',  ( 0.000000000000000000, 0.000000000000000000, 5.000000000000000000 ) ) ;
#228 = COORDINATED_UNIVERSAL_TIME_OFFSET ( 1, 0, .AHEAD. ) ;
#229 = PERSON_AND_ORGANIZATION ( #216, #140 ) ;
#230 = APPROVAL_PERSON_ORGANIZATION ( #225, #135, #33 ) ;
#231 = VECTOR ( 'NONE', #142, 1000.000000000000000 ) ;
#232 = EDGE_CURVE ( 'NONE', #42, #4, #25, .T. ) ;
#233 = DIRECTION ( 'NONE',  ( 0.000000000000000000, 0.000000000000000000, 1.000000000000000000 ) ) ;
#234 = VERTEX_POINT ( 'NONE', #239 ) ;
#235 = APPROVAL_DATE_TIME ( #57, #96 ) ;
#236 = AXIS2_PLACEMENT_3D ( 'NONE', #58, #237, #41 ) ;
#237 = DIRECTION ( 'NONE',  ( 0.000000000000000000, 0.000000000000000000, 1.000000000000000000 ) ) ;
#238 = ORIENTED_EDGE ( 'NONE', *, *, #67, .T. ) ;
#239 = CARTESIAN_POINT ( 'NONE',  ( -3.500000000000000000, 0.000000000000000000, 5.000000000000000000 ) ) ;
#240 = ORIENTED_EDGE ( 'NONE', *, *, #145, .F. ) ;
#241 = DIRECTION ( 'NONE',  ( 0.000000000000000000, 0.000000000000000000, 1.000000000000000000 ) ) ;
#242 = EDGE_LOOP ( 'NONE', ( #137, #139, #26, #179 ) ) ;
#243 = FACE_OUTER_BOUND ( 'NONE', #62, .T. ) ;
#244 = ORIENTED_EDGE ( 'NONE', *, *, #2, .F. ) ;
#245 = DIRECTION ( 'NONE',  ( 1.000000000000000000, 0.000000000000000000, 0.000000000000000000 ) ) ;
#246 = SECURITY_CLASSIFICATION_LEVEL ( 'unclassified' ) ;
#247 = CIRCLE ( 'NONE', #143, 6.000000000000000888 ) ;
#248 = APPROVAL_STATUS ( 'not_yet_approved' ) ;
#249 = EDGE_CURVE ( 'NONE', #234, #160, #170, .T. ) ;
#250 = APPROVAL_DATE_TIME ( #95, #135 ) ;
#251 = VECTOR ( 'NONE', #193, 1000.000000000000000 ) ;
#252 =( LENGTH_UNIT ( ) NAMED_UNIT ( * ) SI_UNIT ( .MILLI., .METRE. ) );
#253 = COORDINATED_UNIVERSAL_TIME_OFFSET ( 1, 0, .AHEAD. ) ;
#254 = CC_DESIGN_APPROVAL ( #96, ( #154 ) ) ;
#255 = DIRECTION ( 'NONE',  ( 0.000000000000000000, 0.000000000000000000, 1.000000000000000000 ) ) ;
ENDSEC;
END-ISO-10303-21;
