ISO-10303-21;
HEADER;
FILE_DESCRIPTION (( 'STEP AP203' ),
    '1' );
FILE_NAME ('878d.STEP',
    '2023-02-13T15:48:02',
    ( '' ),
    ( '' ),
    'SwSTEP 2.0',
    'SolidWorks 2019',
    '' );
FILE_SCHEMA (( 'CONFIG_CONTROL_DESIGN' ));
ENDSEC;

DATA;
#1 = ORIENTED_EDGE ( 'NONE', *, *, #101, .F. ) ;
#2 = DIRECTION ( 'NONE',  ( -0.000000000000000000, -0.000000000000000000, -1.000000000000000000 ) ) ;
#3 = CARTESIAN_POINT ( 'NONE',  ( 0.000000000000000000, 0.000000000000000000, 3.000000000000000000 ) ) ;
#4 = CC_DESIGN_DATE_AND_TIME_ASSIGNMENT ( #210, #140, ( #44 ) ) ;
#5 = CARTESIAN_POINT ( 'NONE',  ( 2.600000000000000089, 3.184081677783117698E-16, 500.0000000000000000 ) ) ;
#6 = DIRECTION ( 'NONE',  ( 0.000000000000000000, 0.000000000000000000, 1.000000000000000000 ) ) ;
#7 = VECTOR ( 'NONE', #209, 1000.000000000000000 ) ;
#8 = CARTESIAN_POINT ( 'NONE',  ( 0.000000000000000000, 0.000000000000000000, 0.000000000000000000 ) ) ;
#9 = COORDINATED_UNIVERSAL_TIME_OFFSET ( 1, 0, .AHEAD. ) ;
#10 = ORIENTED_EDGE ( 'NONE', *, *, #111, .F. ) ;
#11 = ADVANCED_BREP_SHAPE_REPRESENTATION ( '878d', ( #95, #22 ), #114 ) ;
#12 = PERSON_AND_ORGANIZATION_ROLE ( 'creator' ) ;
#13 = DIRECTION ( 'NONE',  ( 1.000000000000000000, 0.000000000000000000, 0.000000000000000000 ) ) ;
#14 = CC_DESIGN_PERSON_AND_ORGANIZATION_ASSIGNMENT ( #191, #12, ( #40 ) ) ;
#15 = VERTEX_POINT ( 'NONE', #141 ) ;
#16 = ORIENTED_EDGE ( 'NONE', *, *, #98, .T. ) ;
#17 = EDGE_CURVE ( 'NONE', #15, #154, #85, .T. ) ;
#18 = EDGE_CURVE ( 'NONE', #142, #38, #253, .T. ) ;
#19 = DIRECTION ( 'NONE',  ( -0.000000000000000000, -0.000000000000000000, -1.000000000000000000 ) ) ;
#20 = CARTESIAN_POINT ( 'NONE',  ( -5.000000000000000000, 0.000000000000000000, 3.000000000000000000 ) ) ;
#21 = CC_DESIGN_PERSON_AND_ORGANIZATION_ASSIGNMENT ( #134, #31, ( #44 ) ) ;
#22 = AXIS2_PLACEMENT_3D ( 'NONE', #226, #59, #139 ) ;
#23 = DIRECTION ( 'NONE',  ( -0.000000000000000000, -0.000000000000000000, -1.000000000000000000 ) ) ;
#24 = CARTESIAN_POINT ( 'NONE',  ( 0.000000000000000000, 0.000000000000000000, 0.000000000000000000 ) ) ;
#25 = CARTESIAN_POINT ( 'NONE',  ( 0.000000000000000000, 0.000000000000000000, 500.0000000000000000 ) ) ;
#26 = AXIS2_PLACEMENT_3D ( 'NONE', #185, #219, #68 ) ;
#27 = AXIS2_PLACEMENT_3D ( 'NONE', #102, #2, #86 ) ;
#28 = ADVANCED_FACE ( 'NONE', ( #84 ), #184, .T. ) ;
#29 = APPROVAL_STATUS ( 'not_yet_approved' ) ;
#30 = APPROVAL_ROLE ( '' ) ;
#31 = PERSON_AND_ORGANIZATION_ROLE ( 'creator' ) ;
#32 = DATE_AND_TIME ( #172, #126 ) ;
#33 = CC_DESIGN_PERSON_AND_ORGANIZATION_ASSIGNMENT ( #93, #223, ( #40 ) ) ;
#34 = EDGE_LOOP ( 'NONE', ( #16, #207 ) ) ;
#35 = VECTOR ( 'NONE', #166, 1000.000000000000000 ) ;
#36 = APPLICATION_PROTOCOL_DEFINITION ( 'international standard', 'config_control_design', 1994, #229 ) ;
#37 = UNCERTAINTY_MEASURE_WITH_UNIT (LENGTH_MEASURE( 1.000000000000000082E-05 ), #247, 'distance_accuracy_value', 'NONE');
#38 = VERTEX_POINT ( 'NONE', #107 ) ;
#39 = CIRCLE ( 'NONE', #26, 2.600000000000000089 ) ;
#40 = PRODUCT_DEFINITION_FORMATION_WITH_SPECIFIED_SOURCE ( 'LIBOVOLNÝ', '', #74, .NOT_KNOWN. ) ;
#41 = ORIENTED_EDGE ( 'NONE', *, *, #101, .T. ) ;
#42 = LOCAL_TIME ( 16, 48, 2.000000000000000000, #9 ) ;
#43 = DIRECTION ( 'NONE',  ( -0.000000000000000000, -0.000000000000000000, -1.000000000000000000 ) ) ;
#44 = PRODUCT_DEFINITION ( 'NEZNÁMÝ', '', #40, #161 ) ;
#45 = EDGE_CURVE ( 'NONE', #38, #15, #201, .T. ) ;
#46 = FACE_OUTER_BOUND ( 'NONE', #174, .T. ) ;
#47 = AXIS2_PLACEMENT_3D ( 'NONE', #3, #87, #199 ) ;
#48 = CARTESIAN_POINT ( 'NONE',  ( 0.000000000000000000, 0.000000000000000000, 500.0000000000000000 ) ) ;
#49 = CIRCLE ( 'NONE', #155, 2.600000000000000089 ) ;
#50 = CARTESIAN_POINT ( 'NONE',  ( 5.000000000000000000, 6.123233995736766282E-16, 3.000000000000000000 ) ) ;
#51 = EDGE_CURVE ( 'NONE', #152, #192, #39, .T. ) ;
#52 = CLOSED_SHELL ( 'NONE', ( #72, #193, #171, #242, #158, #28, #122 ) ) ;
#53 = CC_DESIGN_APPROVAL ( #77, ( #196 ) ) ;
#54 = PERSON_AND_ORGANIZATION_ROLE ( 'classification_officer' ) ;
#55 = PERSON_AND_ORGANIZATION ( #62, #245 ) ;
#56 = EDGE_LOOP ( 'NONE', ( #151, #182, #211, #115 ) ) ;
#57 = DIRECTION ( 'NONE',  ( 0.000000000000000000, 0.000000000000000000, 1.000000000000000000 ) ) ;
#58 = AXIS2_PLACEMENT_3D ( 'NONE', #244, #94, #13 ) ;
#59 = DIRECTION ( 'NONE',  ( 0.000000000000000000, 0.000000000000000000, 1.000000000000000000 ) ) ;
#60 = APPROVAL_STATUS ( 'not_yet_approved' ) ;
#61 = EDGE_LOOP ( 'NONE', ( #239, #228 ) ) ;
#62 = PERSON ( 'NEURÈENÝ', 'NEURÈENÝ', 'NEURÈENÝ', ('NEURÈENÝ'), ('NEURÈENÝ'), ('NEURÈENÝ') ) ;
#63 = EDGE_LOOP ( 'NONE', ( #248, #143 ) ) ;
#64 = ORIENTED_EDGE ( 'NONE', *, *, #45, .T. ) ;
#65 = CIRCLE ( 'NONE', #76, 5.000000000000000000 ) ;
#66 = EDGE_LOOP ( 'NONE', ( #177, #1 ) ) ;
#67 = DIRECTION ( 'NONE',  ( -1.000000000000000000, 0.000000000000000000, 0.000000000000000000 ) ) ;
#68 = DIRECTION ( 'NONE',  ( 1.000000000000000000, 0.000000000000000000, 0.000000000000000000 ) ) ;
#69 = PLANE ( 'NONE',  #131 ) ;
#70 = LOCAL_TIME ( 16, 48, 2.000000000000000000, #153 ) ;
#71 = PLANE ( 'NONE',  #103 ) ;
#72 = ADVANCED_FACE ( 'NONE', ( #124 ), #125, .T. ) ;
#73 = DIRECTION ( 'NONE',  ( -1.000000000000000000, 0.000000000000000000, 0.000000000000000000 ) ) ;
#74 = PRODUCT ( '878d', '878d', '', ( #205 ) ) ;
#75 = DATE_AND_TIME ( #173, #42 ) ;
#76 = AXIS2_PLACEMENT_3D ( 'NONE', #24, #145, #220 ) ;
#77 = APPROVAL ( #204, 'NEURÈENÝ' ) ;
#78 = APPROVAL ( #29, 'NEURÈENÝ' ) ;
#79 = SECURITY_CLASSIFICATION_LEVEL ( 'unclassified' ) ;
#80 =( NAMED_UNIT ( * ) SI_UNIT ( $, .STERADIAN. ) SOLID_ANGLE_UNIT ( ) );
#81 = EDGE_LOOP ( 'NONE', ( #195, #135, #41, #249 ) ) ;
#82 = CALENDAR_DATE ( 2023, 13, 2 ) ;
#83 = AXIS2_PLACEMENT_3D ( 'NONE', #165, #236, #106 ) ;
#84 = FACE_OUTER_BOUND ( 'NONE', #119, .T. ) ;
#85 = CIRCLE ( 'NONE', #208, 5.000000000000000000 ) ;
#86 = DIRECTION ( 'NONE',  ( -1.000000000000000000, 0.000000000000000000, 0.000000000000000000 ) ) ;
#87 = DIRECTION ( 'NONE',  ( 0.000000000000000000, 0.000000000000000000, 1.000000000000000000 ) ) ;
#88 = DIRECTION ( 'NONE',  ( 1.000000000000000000, 0.000000000000000000, -0.000000000000000000 ) ) ;
#89 = CARTESIAN_POINT ( 'NONE',  ( 0.000000000000000000, 0.000000000000000000, 3.000000000000000000 ) ) ;
#90 = PERSON_AND_ORGANIZATION ( #62, #245 ) ;
#91 = FACE_BOUND ( 'NONE', #61, .T. ) ;
#92 = ORIENTED_EDGE ( 'NONE', *, *, #133, .F. ) ;
#93 = PERSON_AND_ORGANIZATION ( #62, #245 ) ;
#94 = DIRECTION ( 'NONE',  ( 0.000000000000000000, 0.000000000000000000, 1.000000000000000000 ) ) ;
#95 = MANIFOLD_SOLID_BREP ( 'Pøidat vysunutím3', #52 ) ;
#96 = DATE_TIME_ROLE ( 'classification_date' ) ;
#97 = DIRECTION ( 'NONE',  ( 1.000000000000000000, 0.000000000000000000, 0.000000000000000000 ) ) ;
#98 = EDGE_CURVE ( 'NONE', #38, #142, #179, .T. ) ;
#99 = PLANE ( 'NONE',  #117 ) ;
#100 = CARTESIAN_POINT ( 'NONE',  ( 0.000000000000000000, 0.000000000000000000, 3.000000000000000000 ) ) ;
#101 = EDGE_CURVE ( 'NONE', #154, #15, #65, .T. ) ;
#102 = CARTESIAN_POINT ( 'NONE',  ( 0.000000000000000000, 0.000000000000000000, 3.000000000000000000 ) ) ;
#103 = AXIS2_PLACEMENT_3D ( 'NONE', #234, #104, #146 ) ;
#104 = DIRECTION ( 'NONE',  ( 0.000000000000000000, 0.000000000000000000, 1.000000000000000000 ) ) ;
#105 = CIRCLE ( 'NONE', #58, 2.600000000000000089 ) ;
#106 = DIRECTION ( 'NONE',  ( 1.000000000000000000, 0.000000000000000000, 0.000000000000000000 ) ) ;
#107 = CARTESIAN_POINT ( 'NONE',  ( -5.000000000000000000, 0.000000000000000000, 3.000000000000000000 ) ) ;
#108 = CALENDAR_DATE ( 2023, 13, 2 ) ;
#109 = APPROVAL_ROLE ( '' ) ;
#110 = ORIENTED_EDGE ( 'NONE', *, *, #51, .T. ) ;
#111 = EDGE_CURVE ( 'NONE', #225, #157, #240, .T. ) ;
#112 = APPROVAL_ROLE ( '' ) ;
#113 = CARTESIAN_POINT ( 'NONE',  ( -2.600000000000000089, 0.000000000000000000, 500.0000000000000000 ) ) ;
#114 =( GEOMETRIC_REPRESENTATION_CONTEXT ( 3 ) GLOBAL_UNCERTAINTY_ASSIGNED_CONTEXT ( ( #37 ) ) GLOBAL_UNIT_ASSIGNED_CONTEXT ( ( #247, #148, #80 ) ) REPRESENTATION_CONTEXT ( 'NONE', 'WORKASPACE' ) );
#115 = ORIENTED_EDGE ( 'NONE', *, *, #144, .F. ) ;
#116 = AXIS2_PLACEMENT_3D ( 'NONE', #100, #181, #254 ) ;
#117 = AXIS2_PLACEMENT_3D ( 'NONE', #180, #57, #189 ) ;
#118 = CC_DESIGN_PERSON_AND_ORGANIZATION_ASSIGNMENT ( #129, #54, ( #196 ) ) ;
#119 = EDGE_LOOP ( 'NONE', ( #92, #10, #224, #110 ) ) ;
#120 = ORIENTED_EDGE ( 'NONE', *, *, #17, .T. ) ;
#121 = LOCAL_TIME ( 16, 48, 2.000000000000000000, #156 ) ;
#122 = ADVANCED_FACE ( 'NONE', ( #186 ), #71, .T. ) ;
#123 = FACE_OUTER_BOUND ( 'NONE', #81, .T. ) ;
#124 = FACE_OUTER_BOUND ( 'NONE', #56, .T. ) ;
#125 = CYLINDRICAL_SURFACE ( 'NONE', #241, 2.600000000000000089 ) ;
#126 = LOCAL_TIME ( 16, 48, 2.000000000000000000, #243 ) ;
#127 = APPROVAL_PERSON_ORGANIZATION ( #55, #77, #112 ) ;
#128 = LINE ( 'NONE', #202, #231 ) ;
#129 = PERSON_AND_ORGANIZATION ( #62, #245 ) ;
#130 = PERSON_AND_ORGANIZATION_ROLE ( 'design_owner' ) ;
#131 = AXIS2_PLACEMENT_3D ( 'NONE', #8, #6, #88 ) ;
#132 = DATE_AND_TIME ( #108, #70 ) ;
#133 = EDGE_CURVE ( 'NONE', #157, #192, #200, .T. ) ;
#134 = PERSON_AND_ORGANIZATION ( #62, #245 ) ;
#135 = ORIENTED_EDGE ( 'NONE', *, *, #194, .T. ) ;
#136 = CARTESIAN_POINT ( 'NONE',  ( 0.000000000000000000, 0.000000000000000000, 3.000000000000000000 ) ) ;
#137 = ORIENTED_EDGE ( 'NONE', *, *, #98, .F. ) ;
#138 = FACE_OUTER_BOUND ( 'NONE', #34, .T. ) ;
#139 = DIRECTION ( 'NONE',  ( 1.000000000000000000, 0.000000000000000000, 0.000000000000000000 ) ) ;
#140 = DATE_TIME_ROLE ( 'creation_date' ) ;
#141 = CARTESIAN_POINT ( 'NONE',  ( -5.000000000000000000, 0.000000000000000000, 0.000000000000000000 ) ) ;
#142 = VERTEX_POINT ( 'NONE', #50 ) ;
#143 = ORIENTED_EDGE ( 'NONE', *, *, #198, .T. ) ;
#144 = EDGE_CURVE ( 'NONE', #225, #152, #128, .T. ) ;
#145 = DIRECTION ( 'NONE',  ( 0.000000000000000000, 0.000000000000000000, 1.000000000000000000 ) ) ;
#146 = DIRECTION ( 'NONE',  ( 1.000000000000000000, 0.000000000000000000, -0.000000000000000000 ) ) ;
#147 = APPLICATION_CONTEXT ( 'configuration controlled 3d designs of mechanical parts and assemblies' ) ;
#148 =( NAMED_UNIT ( * ) PLANE_ANGLE_UNIT ( ) SI_UNIT ( $, .RADIAN. ) );
#149 = AXIS2_PLACEMENT_3D ( 'NONE', #25, #43, #187 ) ;
#150 = APPROVAL_DATE_TIME ( #75, #78 ) ;
#151 = ORIENTED_EDGE ( 'NONE', *, *, #198, .F. ) ;
#152 = VERTEX_POINT ( 'NONE', #237 ) ;
#153 = COORDINATED_UNIVERSAL_TIME_OFFSET ( 1, 0, .AHEAD. ) ;
#154 = VERTEX_POINT ( 'NONE', #215 ) ;
#155 = AXIS2_PLACEMENT_3D ( 'NONE', #136, #206, #97 ) ;
#156 = COORDINATED_UNIVERSAL_TIME_OFFSET ( 1, 0, .AHEAD. ) ;
#157 = VERTEX_POINT ( 'NONE', #5 ) ;
#158 = ADVANCED_FACE ( 'NONE', ( #235 ), #69, .F. ) ;
#159 = DIRECTION ( 'NONE',  ( 0.000000000000000000, 0.000000000000000000, 1.000000000000000000 ) ) ;
#160 = AXIS2_PLACEMENT_3D ( 'NONE', #89, #170, #73 ) ;
#161 = DESIGN_CONTEXT ( 'detailed design', #147, 'design' ) ;
#162 = APPROVAL_PERSON_ORGANIZATION ( #227, #212, #30 ) ;
#163 = LINE ( 'NONE', #233, #7 ) ;
#164 = CC_DESIGN_PERSON_AND_ORGANIZATION_ASSIGNMENT ( #90, #130, ( #74 ) ) ;
#165 = CARTESIAN_POINT ( 'NONE',  ( 0.000000000000000000, 0.000000000000000000, 500.0000000000000000 ) ) ;
#166 = DIRECTION ( 'NONE',  ( -0.000000000000000000, -0.000000000000000000, -1.000000000000000000 ) ) ;
#167 = DIRECTION ( 'NONE',  ( -0.000000000000000000, -0.000000000000000000, -1.000000000000000000 ) ) ;
#168 = CC_DESIGN_APPROVAL ( #78, ( #44 ) ) ;
#169 = APPROVAL_DATE_TIME ( #132, #77 ) ;
#170 = DIRECTION ( 'NONE',  ( -0.000000000000000000, -0.000000000000000000, -1.000000000000000000 ) ) ;
#171 = ADVANCED_FACE ( 'NONE', ( #46 ), #183, .T. ) ;
#172 = CALENDAR_DATE ( 2023, 13, 2 ) ;
#173 = CALENDAR_DATE ( 2023, 13, 2 ) ;
#174 = EDGE_LOOP ( 'NONE', ( #190, #137, #64, #120 ) ) ;
#175 = DATE_AND_TIME ( #176, #255 ) ;
#176 = CALENDAR_DATE ( 2023, 13, 2 ) ;
#177 = ORIENTED_EDGE ( 'NONE', *, *, #17, .F. ) ;
#178 = APPROVAL_DATE_TIME ( #32, #212 ) ;
#179 = CIRCLE ( 'NONE', #47, 5.000000000000000000 ) ;
#180 = CARTESIAN_POINT ( 'NONE',  ( 0.000000000000000000, 0.000000000000000000, 3.000000000000000000 ) ) ;
#181 = DIRECTION ( 'NONE',  ( 0.000000000000000000, 0.000000000000000000, 1.000000000000000000 ) ) ;
#182 = ORIENTED_EDGE ( 'NONE', *, *, #133, .T. ) ;
#183 = CYLINDRICAL_SURFACE ( 'NONE', #160, 5.000000000000000000 ) ;
#184 = CYLINDRICAL_SURFACE ( 'NONE', #149, 2.600000000000000089 ) ;
#185 = CARTESIAN_POINT ( 'NONE',  ( 0.000000000000000000, 0.000000000000000000, 3.000000000000000000 ) ) ;
#186 = FACE_OUTER_BOUND ( 'NONE', #63, .T. ) ;
#187 = DIRECTION ( 'NONE',  ( -1.000000000000000000, 0.000000000000000000, 0.000000000000000000 ) ) ;
#188 = CC_DESIGN_SECURITY_CLASSIFICATION ( #196, ( #40 ) ) ;
#189 = DIRECTION ( 'NONE',  ( 1.000000000000000000, 0.000000000000000000, -0.000000000000000000 ) ) ;
#190 = ORIENTED_EDGE ( 'NONE', *, *, #194, .F. ) ;
#191 = PERSON_AND_ORGANIZATION ( #62, #245 ) ;
#192 = VERTEX_POINT ( 'NONE', #214 ) ;
#193 = ADVANCED_FACE ( 'NONE', ( #123 ), #197, .T. ) ;
#194 = EDGE_CURVE ( 'NONE', #142, #154, #163, .T. ) ;
#195 = ORIENTED_EDGE ( 'NONE', *, *, #18, .F. ) ;
#196 = SECURITY_CLASSIFICATION ( '', '', #79 ) ;
#197 = CYLINDRICAL_SURFACE ( 'NONE', #27, 5.000000000000000000 ) ;
#198 = EDGE_CURVE ( 'NONE', #157, #225, #105, .T. ) ;
#199 = DIRECTION ( 'NONE',  ( 1.000000000000000000, 0.000000000000000000, 0.000000000000000000 ) ) ;
#200 = LINE ( 'NONE', #217, #35 ) ;
#201 = LINE ( 'NONE', #20, #222 ) ;
#202 = CARTESIAN_POINT ( 'NONE',  ( -2.600000000000000089, 0.000000000000000000, 500.0000000000000000 ) ) ;
#203 = PERSON_AND_ORGANIZATION ( #62, #245 ) ;
#204 = APPROVAL_STATUS ( 'not_yet_approved' ) ;
#205 = MECHANICAL_CONTEXT ( 'NONE', #229, 'mechanical' ) ;
#206 = DIRECTION ( 'NONE',  ( 0.000000000000000000, 0.000000000000000000, 1.000000000000000000 ) ) ;
#207 = ORIENTED_EDGE ( 'NONE', *, *, #18, .T. ) ;
#208 = AXIS2_PLACEMENT_3D ( 'NONE', #252, #159, #213 ) ;
#209 = DIRECTION ( 'NONE',  ( -0.000000000000000000, -0.000000000000000000, -1.000000000000000000 ) ) ;
#210 = DATE_AND_TIME ( #82, #121 ) ;
#211 = ORIENTED_EDGE ( 'NONE', *, *, #230, .T. ) ;
#212 = APPROVAL ( #60, 'NEURÈENÝ' ) ;
#213 = DIRECTION ( 'NONE',  ( 1.000000000000000000, 0.000000000000000000, 0.000000000000000000 ) ) ;
#214 = CARTESIAN_POINT ( 'NONE',  ( 2.600000000000000089, 3.184081677783117698E-16, 3.000000000000000000 ) ) ;
#215 = CARTESIAN_POINT ( 'NONE',  ( 5.000000000000000000, 6.123233995736766282E-16, 0.000000000000000000 ) ) ;
#216 = PRODUCT_DEFINITION_SHAPE ( 'NONE', 'NONE',  #44 ) ;
#217 = CARTESIAN_POINT ( 'NONE',  ( 2.600000000000000089, 3.184081677783117698E-16, 500.0000000000000000 ) ) ;
#218 = CC_DESIGN_APPROVAL ( #212, ( #40 ) ) ;
#219 = DIRECTION ( 'NONE',  ( 0.000000000000000000, 0.000000000000000000, 1.000000000000000000 ) ) ;
#220 = DIRECTION ( 'NONE',  ( 1.000000000000000000, 0.000000000000000000, 0.000000000000000000 ) ) ;
#221 = COORDINATED_UNIVERSAL_TIME_OFFSET ( 1, 0, .AHEAD. ) ;
#222 = VECTOR ( 'NONE', #19, 1000.000000000000000 ) ;
#223 = PERSON_AND_ORGANIZATION_ROLE ( 'design_supplier' ) ;
#224 = ORIENTED_EDGE ( 'NONE', *, *, #144, .T. ) ;
#225 = VERTEX_POINT ( 'NONE', #113 ) ;
#226 = CARTESIAN_POINT ( 'NONE',  ( 0.000000000000000000, 0.000000000000000000, 0.000000000000000000 ) ) ;
#227 = PERSON_AND_ORGANIZATION ( #62, #245 ) ;
#228 = ORIENTED_EDGE ( 'NONE', *, *, #230, .F. ) ;
#229 = APPLICATION_CONTEXT ( 'configuration controlled 3d designs of mechanical parts and assemblies' ) ;
#230 = EDGE_CURVE ( 'NONE', #192, #152, #49, .T. ) ;
#231 = VECTOR ( 'NONE', #23, 1000.000000000000000 ) ;
#232 = APPROVAL_PERSON_ORGANIZATION ( #203, #78, #109 ) ;
#233 = CARTESIAN_POINT ( 'NONE',  ( 5.000000000000000000, 6.123233995736766282E-16, 3.000000000000000000 ) ) ;
#234 = CARTESIAN_POINT ( 'NONE',  ( 0.000000000000000000, 0.000000000000000000, 500.0000000000000000 ) ) ;
#235 = FACE_OUTER_BOUND ( 'NONE', #66, .T. ) ;
#236 = DIRECTION ( 'NONE',  ( 0.000000000000000000, 0.000000000000000000, 1.000000000000000000 ) ) ;
#237 = CARTESIAN_POINT ( 'NONE',  ( -2.600000000000000089, 0.000000000000000000, 3.000000000000000000 ) ) ;
#238 = APPLICATION_PROTOCOL_DEFINITION ( 'international standard', 'config_control_design', 1994, #147 ) ;
#239 = ORIENTED_EDGE ( 'NONE', *, *, #51, .F. ) ;
#240 = CIRCLE ( 'NONE', #83, 2.600000000000000089 ) ;
#241 = AXIS2_PLACEMENT_3D ( 'NONE', #48, #167, #67 ) ;
#242 = ADVANCED_FACE ( 'NONE', ( #91, #138 ), #99, .T. ) ;
#243 = COORDINATED_UNIVERSAL_TIME_OFFSET ( 1, 0, .AHEAD. ) ;
#244 = CARTESIAN_POINT ( 'NONE',  ( 0.000000000000000000, 0.000000000000000000, 500.0000000000000000 ) ) ;
#245 = ORGANIZATION ( 'NEURÈENÝ', 'NEURÈENÝ', '' ) ;
#246 = SHAPE_DEFINITION_REPRESENTATION ( #216, #11 ) ;
#247 =( LENGTH_UNIT ( ) NAMED_UNIT ( * ) SI_UNIT ( .MILLI., .METRE. ) );
#248 = ORIENTED_EDGE ( 'NONE', *, *, #111, .T. ) ;
#249 = ORIENTED_EDGE ( 'NONE', *, *, #45, .F. ) ;
#250 = PRODUCT_RELATED_PRODUCT_CATEGORY ( 'detail', '', ( #74 ) ) ;
#251 = CC_DESIGN_DATE_AND_TIME_ASSIGNMENT ( #175, #96, ( #196 ) ) ;
#252 = CARTESIAN_POINT ( 'NONE',  ( 0.000000000000000000, 0.000000000000000000, 0.000000000000000000 ) ) ;
#253 = CIRCLE ( 'NONE', #116, 5.000000000000000000 ) ;
#254 = DIRECTION ( 'NONE',  ( 1.000000000000000000, 0.000000000000000000, 0.000000000000000000 ) ) ;
#255 = LOCAL_TIME ( 16, 48, 2.000000000000000000, #221 ) ;
ENDSEC;
END-ISO-10303-21;
