ISO-10303-21;
HEADER;
FILE_DESCRIPTION (( 'STEP AP203' ),
    '1' );
FILE_NAME ('8f88.STEP',
    '2023-02-13T16:08:26',
    ( '' ),
    ( '' ),
    'SwSTEP 2.0',
    'SolidWorks 2019',
    '' );
FILE_SCHEMA (( 'CONFIG_CONTROL_DESIGN' ));
ENDSEC;

DATA;
#1 = APPROVAL ( #98, 'NEURÈENÝ' ) ;
#2 = CARTESIAN_POINT ( 'NONE',  ( 0.000000000000000000, 0.000000000000000000, 3.000000000000000000 ) ) ;
#3 = ORIENTED_EDGE ( 'NONE', *, *, #58, .T. ) ;
#4 = APPROVAL_STATUS ( 'not_yet_approved' ) ;
#5 = ORIENTED_EDGE ( 'NONE', *, *, #134, .T. ) ;
#6 = CIRCLE ( 'NONE', #210, 4.000000000000000000 ) ;
#7 = CIRCLE ( 'NONE', #31, 4.000000000000000000 ) ;
#8 = CARTESIAN_POINT ( 'NONE',  ( -4.000000000000000000, 0.000000000000000000, 3.000000000000000000 ) ) ;
#9 = EDGE_CURVE ( 'NONE', #82, #224, #7, .T. ) ;
#10 = DIRECTION ( 'NONE',  ( -1.000000000000000000, 0.000000000000000000, 0.000000000000000000 ) ) ;
#11 = DIRECTION ( 'NONE',  ( 0.000000000000000000, 0.000000000000000000, 1.000000000000000000 ) ) ;
#12 = EDGE_CURVE ( 'NONE', #187, #107, #6, .T. ) ;
#13 = CYLINDRICAL_SURFACE ( 'NONE', #241, 2.100000000000000089 ) ;
#14 = DIRECTION ( 'NONE',  ( 1.000000000000000000, 0.000000000000000000, -0.000000000000000000 ) ) ;
#15 = ADVANCED_FACE ( 'NONE', ( #208 ), #55, .T. ) ;
#16 = PERSON_AND_ORGANIZATION ( #227, #155 ) ;
#17 = ORIENTED_EDGE ( 'NONE', *, *, #67, .T. ) ;
#18 = PERSON_AND_ORGANIZATION_ROLE ( 'creator' ) ;
#19 = EDGE_LOOP ( 'NONE', ( #122, #87 ) ) ;
#20 = LOCAL_TIME ( 17, 8, 26.00000000000000000, #255 ) ;
#21 = CC_DESIGN_DATE_AND_TIME_ASSIGNMENT ( #248, #47, ( #81 ) ) ;
#22 = CALENDAR_DATE ( 2023, 13, 2 ) ;
#23 = EDGE_LOOP ( 'NONE', ( #108, #118, #44, #84 ) ) ;
#24 = DESIGN_CONTEXT ( 'detailed design', #119, 'design' ) ;
#25 = ORIENTED_EDGE ( 'NONE', *, *, #181, .F. ) ;
#26 = ORIENTED_EDGE ( 'NONE', *, *, #58, .F. ) ;
#27 = UNCERTAINTY_MEASURE_WITH_UNIT (LENGTH_MEASURE( 1.000000000000000082E-05 ), #218, 'distance_accuracy_value', 'NONE');
#28 = COORDINATED_UNIVERSAL_TIME_OFFSET ( 1, 0, .AHEAD. ) ;
#29 = VECTOR ( 'NONE', #146, 1000.000000000000000 ) ;
#30 = CC_DESIGN_APPROVAL ( #89, ( #159 ) ) ;
#31 = AXIS2_PLACEMENT_3D ( 'NONE', #121, #163, #244 ) ;
#32 = DIRECTION ( 'NONE',  ( 1.000000000000000000, 0.000000000000000000, 0.000000000000000000 ) ) ;
#33 = CARTESIAN_POINT ( 'NONE',  ( 0.000000000000000000, 0.000000000000000000, 200.0000000000000000 ) ) ;
#34 = CC_DESIGN_PERSON_AND_ORGANIZATION_ASSIGNMENT ( #117, #18, ( #79 ) ) ;
#35 = CARTESIAN_POINT ( 'NONE',  ( 4.000000000000000000, 4.898587196589412829E-16, 3.000000000000000000 ) ) ;
#36 = LINE ( 'NONE', #8, #156 ) ;
#37 = CIRCLE ( 'NONE', #150, 2.100000000000000089 ) ;
#38 = DATE_AND_TIME ( #43, #223 ) ;
#39 = DIRECTION ( 'NONE',  ( 0.000000000000000000, 0.000000000000000000, 1.000000000000000000 ) ) ;
#40 = EDGE_CURVE ( 'NONE', #82, #107, #36, .T. ) ;
#41 = LOCAL_TIME ( 17, 8, 26.00000000000000000, #202 ) ;
#42 = EDGE_LOOP ( 'NONE', ( #184, #250, #3, #25 ) ) ;
#43 = CALENDAR_DATE ( 2023, 13, 2 ) ;
#44 = ORIENTED_EDGE ( 'NONE', *, *, #181, .T. ) ;
#45 = APPLICATION_PROTOCOL_DEFINITION ( 'international standard', 'config_control_design', 1994, #119 ) ;
#46 = EDGE_LOOP ( 'NONE', ( #160, #26 ) ) ;
#47 = DATE_TIME_ROLE ( 'classification_date' ) ;
#48 = AXIS2_PLACEMENT_3D ( 'NONE', #2, #59, #239 ) ;
#49 = EDGE_LOOP ( 'NONE', ( #62, #5, #123, #85 ) ) ;
#50 = ORIENTED_EDGE ( 'NONE', *, *, #9, .F. ) ;
#51 = DIRECTION ( 'NONE',  ( -0.000000000000000000, -0.000000000000000000, -1.000000000000000000 ) ) ;
#52 = APPROVAL_PERSON_ORGANIZATION ( #182, #89, #120 ) ;
#53 = DIRECTION ( 'NONE',  ( 1.000000000000000000, 0.000000000000000000, 0.000000000000000000 ) ) ;
#54 = DIRECTION ( 'NONE',  ( -0.000000000000000000, -0.000000000000000000, -1.000000000000000000 ) ) ;
#55 = CYLINDRICAL_SURFACE ( 'NONE', #95, 2.100000000000000089 ) ;
#56 = CC_DESIGN_APPROVAL ( #129, ( #81 ) ) ;
#57 = PERSON_AND_ORGANIZATION_ROLE ( 'creator' ) ;
#58 = EDGE_CURVE ( 'NONE', #221, #201, #37, .T. ) ;
#59 = DIRECTION ( 'NONE',  ( -0.000000000000000000, -0.000000000000000000, -1.000000000000000000 ) ) ;
#60 = CARTESIAN_POINT ( 'NONE',  ( 0.000000000000000000, 0.000000000000000000, 3.000000000000000000 ) ) ;
#61 = ORIENTED_EDGE ( 'NONE', *, *, #134, .F. ) ;
#62 = ORIENTED_EDGE ( 'NONE', *, *, #170, .F. ) ;
#63 = APPLICATION_CONTEXT ( 'configuration controlled 3d designs of mechanical parts and assemblies' ) ;
#64 = CARTESIAN_POINT ( 'NONE',  ( 0.000000000000000000, 0.000000000000000000, 0.000000000000000000 ) ) ;
#65 = LOCAL_TIME ( 17, 8, 26.00000000000000000, #28 ) ;
#66 = APPROVAL_STATUS ( 'not_yet_approved' ) ;
#67 = EDGE_CURVE ( 'NONE', #107, #187, #68, .T. ) ;
#68 = CIRCLE ( 'NONE', #246, 4.000000000000000000 ) ;
#69 = ORIENTED_EDGE ( 'NONE', *, *, #12, .F. ) ;
#70 = CARTESIAN_POINT ( 'NONE',  ( 0.000000000000000000, 0.000000000000000000, 3.000000000000000000 ) ) ;
#71 = CARTESIAN_POINT ( 'NONE',  ( -4.000000000000000000, 0.000000000000000000, 3.000000000000000000 ) ) ;
#72 = CIRCLE ( 'NONE', #220, 4.000000000000000000 ) ;
#73 = AXIS2_PLACEMENT_3D ( 'NONE', #195, #149, #192 ) ;
#74 = DIRECTION ( 'NONE',  ( 0.000000000000000000, 0.000000000000000000, 1.000000000000000000 ) ) ;
#75 = FACE_OUTER_BOUND ( 'NONE', #19, .T. ) ;
#76 = DATE_AND_TIME ( #22, #41 ) ;
#77 = DATE_TIME_ROLE ( 'creation_date' ) ;
#78 = DIRECTION ( 'NONE',  ( 0.000000000000000000, 0.000000000000000000, 1.000000000000000000 ) ) ;
#79 = PRODUCT_DEFINITION ( 'NEZNÁMÝ', '', #159, #24 ) ;
#80 = DIRECTION ( 'NONE',  ( 0.000000000000000000, 0.000000000000000000, 1.000000000000000000 ) ) ;
#81 = SECURITY_CLASSIFICATION ( '', '', #88 ) ;
#82 = VERTEX_POINT ( 'NONE', #71 ) ;
#83 = CARTESIAN_POINT ( 'NONE',  ( 4.000000000000000000, 4.898587196589412829E-16, 3.000000000000000000 ) ) ;
#84 = ORIENTED_EDGE ( 'NONE', *, *, #124, .T. ) ;
#85 = ORIENTED_EDGE ( 'NONE', *, *, #40, .F. ) ;
#86 = ADVANCED_FACE ( 'NONE', ( #212 ), #112, .F. ) ;
#87 = ORIENTED_EDGE ( 'NONE', *, *, #143, .T. ) ;
#88 = SECURITY_CLASSIFICATION_LEVEL ( 'unclassified' ) ;
#89 = APPROVAL ( #4, 'NEURÈENÝ' ) ;
#90 = CC_DESIGN_SECURITY_CLASSIFICATION ( #81, ( #159 ) ) ;
#91 = AXIS2_PLACEMENT_3D ( 'NONE', #102, #78, #185 ) ;
#92 = DIRECTION ( 'NONE',  ( 1.000000000000000000, 0.000000000000000000, 0.000000000000000000 ) ) ;
#93 = DIRECTION ( 'NONE',  ( 0.000000000000000000, 0.000000000000000000, 1.000000000000000000 ) ) ;
#94 = CARTESIAN_POINT ( 'NONE',  ( 0.000000000000000000, 0.000000000000000000, 0.000000000000000000 ) ) ;
#95 = AXIS2_PLACEMENT_3D ( 'NONE', #135, #51, #209 ) ;
#96 = CARTESIAN_POINT ( 'NONE',  ( -2.100000000000000089, 0.000000000000000000, 3.000000000000000000 ) ) ;
#97 = CARTESIAN_POINT ( 'NONE',  ( 0.000000000000000000, 0.000000000000000000, 200.0000000000000000 ) ) ;
#98 = APPROVAL_STATUS ( 'not_yet_approved' ) ;
#99 = PERSON_AND_ORGANIZATION ( #227, #155 ) ;
#100 = DATE_AND_TIME ( #136, #20 ) ;
#101 = EDGE_LOOP ( 'NONE', ( #61, #50, #141, #17 ) ) ;
#102 = CARTESIAN_POINT ( 'NONE',  ( 0.000000000000000000, 0.000000000000000000, 0.000000000000000000 ) ) ;
#103 = VECTOR ( 'NONE', #132, 1000.000000000000000 ) ;
#104 = ORIENTED_EDGE ( 'NONE', *, *, #67, .F. ) ;
#105 = CALENDAR_DATE ( 2023, 13, 2 ) ;
#106 = EDGE_CURVE ( 'NONE', #144, #221, #214, .T. ) ;
#107 = VERTEX_POINT ( 'NONE', #252 ) ;
#108 = ORIENTED_EDGE ( 'NONE', *, *, #106, .F. ) ;
#109 = APPROVAL_ROLE ( '' ) ;
#110 = CARTESIAN_POINT ( 'NONE',  ( 0.000000000000000000, 0.000000000000000000, 3.000000000000000000 ) ) ;
#111 = CARTESIAN_POINT ( 'NONE',  ( 0.000000000000000000, 0.000000000000000000, 3.000000000000000000 ) ) ;
#112 = PLANE ( 'NONE',  #131 ) ;
#113 = DIRECTION ( 'NONE',  ( 1.000000000000000000, 0.000000000000000000, 0.000000000000000000 ) ) ;
#114 = CARTESIAN_POINT ( 'NONE',  ( -2.100000000000000089, 0.000000000000000000, 200.0000000000000000 ) ) ;
#115 = CARTESIAN_POINT ( 'NONE',  ( 2.100000000000000089, 2.571758278209441957E-16, 3.000000000000000000 ) ) ;
#116 = MECHANICAL_CONTEXT ( 'NONE', #63, 'mechanical' ) ;
#117 = PERSON_AND_ORGANIZATION ( #227, #155 ) ;
#118 = ORIENTED_EDGE ( 'NONE', *, *, #228, .F. ) ;
#119 = APPLICATION_CONTEXT ( 'configuration controlled 3d designs of mechanical parts and assemblies' ) ;
#120 = APPROVAL_ROLE ( '' ) ;
#121 = CARTESIAN_POINT ( 'NONE',  ( 0.000000000000000000, 0.000000000000000000, 3.000000000000000000 ) ) ;
#122 = ORIENTED_EDGE ( 'NONE', *, *, #228, .T. ) ;
#123 = ORIENTED_EDGE ( 'NONE', *, *, #12, .T. ) ;
#124 = EDGE_CURVE ( 'NONE', #201, #221, #189, .T. ) ;
#125 = PRODUCT ( '8f88', '8f88', '', ( #116 ) ) ;
#126 = CIRCLE ( 'NONE', #229, 2.100000000000000089 ) ;
#127 = SHAPE_DEFINITION_REPRESENTATION ( #145, #240 ) ;
#128 = DIRECTION ( 'NONE',  ( 0.000000000000000000, 0.000000000000000000, 1.000000000000000000 ) ) ;
#129 = APPROVAL ( #66, 'NEURÈENÝ' ) ;
#130 = DIRECTION ( 'NONE',  ( 0.000000000000000000, 0.000000000000000000, 1.000000000000000000 ) ) ;
#131 = AXIS2_PLACEMENT_3D ( 'NONE', #94, #93, #169 ) ;
#132 = DIRECTION ( 'NONE',  ( -0.000000000000000000, -0.000000000000000000, -1.000000000000000000 ) ) ;
#133 = DIRECTION ( 'NONE',  ( -1.000000000000000000, 0.000000000000000000, 0.000000000000000000 ) ) ;
#134 = EDGE_CURVE ( 'NONE', #224, #187, #175, .T. ) ;
#135 = CARTESIAN_POINT ( 'NONE',  ( 0.000000000000000000, 0.000000000000000000, 200.0000000000000000 ) ) ;
#136 = CALENDAR_DATE ( 2023, 13, 2 ) ;
#137 = CARTESIAN_POINT ( 'NONE',  ( 0.000000000000000000, 0.000000000000000000, 200.0000000000000000 ) ) ;
#138 = DIRECTION ( 'NONE',  ( 1.000000000000000000, 0.000000000000000000, -0.000000000000000000 ) ) ;
#139 = AXIS2_PLACEMENT_3D ( 'NONE', #60, #80, #138 ) ;
#140 = APPROVAL_ROLE ( '' ) ;
#141 = ORIENTED_EDGE ( 'NONE', *, *, #40, .T. ) ;
#142 = ORIENTED_EDGE ( 'NONE', *, *, #170, .T. ) ;
#143 = EDGE_CURVE ( 'NONE', #144, #162, #173, .T. ) ;
#144 = VERTEX_POINT ( 'NONE', #151 ) ;
#145 = PRODUCT_DEFINITION_SHAPE ( 'NONE', 'NONE',  #79 ) ;
#146 = DIRECTION ( 'NONE',  ( -0.000000000000000000, -0.000000000000000000, -1.000000000000000000 ) ) ;
#147 = ADVANCED_FACE ( 'NONE', ( #232 ), #174, .T. ) ;
#148 = DIRECTION ( 'NONE',  ( 0.000000000000000000, 0.000000000000000000, 1.000000000000000000 ) ) ;
#149 = DIRECTION ( 'NONE',  ( 0.000000000000000000, 0.000000000000000000, 1.000000000000000000 ) ) ;
#150 = AXIS2_PLACEMENT_3D ( 'NONE', #110, #196, #32 ) ;
#151 = CARTESIAN_POINT ( 'NONE',  ( 2.100000000000000089, 2.571758278209441957E-16, 200.0000000000000000 ) ) ;
#152 = PRODUCT_RELATED_PRODUCT_CATEGORY ( 'detail', '', ( #125 ) ) ;
#153 = CARTESIAN_POINT ( 'NONE',  ( 2.100000000000000089, 2.571758278209441957E-16, 200.0000000000000000 ) ) ;
#154 = APPROVAL_DATE_TIME ( #76, #89 ) ;
#155 = ORGANIZATION ( 'NEURÈENÝ', 'NEURÈENÝ', '' ) ;
#156 = VECTOR ( 'NONE', #253, 1000.000000000000000 ) ;
#157 = APPLICATION_PROTOCOL_DEFINITION ( 'international standard', 'config_control_design', 1994, #63 ) ;
#158 =( NAMED_UNIT ( * ) PLANE_ANGLE_UNIT ( ) SI_UNIT ( $, .RADIAN. ) );
#159 = PRODUCT_DEFINITION_FORMATION_WITH_SPECIFIED_SOURCE ( 'LIBOVOLNÝ', '', #125, .NOT_KNOWN. ) ;
#160 = ORIENTED_EDGE ( 'NONE', *, *, #124, .F. ) ;
#161 = PLANE ( 'NONE',  #139 ) ;
#162 = VERTEX_POINT ( 'NONE', #251 ) ;
#163 = DIRECTION ( 'NONE',  ( 0.000000000000000000, 0.000000000000000000, 1.000000000000000000 ) ) ;
#164 = CC_DESIGN_PERSON_AND_ORGANIZATION_ASSIGNMENT ( #235, #57, ( #159 ) ) ;
#165 = VECTOR ( 'NONE', #171, 1000.000000000000000 ) ;
#166 = PERSON_AND_ORGANIZATION ( #227, #155 ) ;
#167 = PERSON_AND_ORGANIZATION_ROLE ( 'classification_officer' ) ;
#168 = CARTESIAN_POINT ( 'NONE',  ( 0.000000000000000000, 0.000000000000000000, 0.000000000000000000 ) ) ;
#169 = DIRECTION ( 'NONE',  ( 1.000000000000000000, 0.000000000000000000, -0.000000000000000000 ) ) ;
#170 = EDGE_CURVE ( 'NONE', #224, #82, #72, .T. ) ;
#171 = DIRECTION ( 'NONE',  ( -0.000000000000000000, -0.000000000000000000, -1.000000000000000000 ) ) ;
#172 = AXIS2_PLACEMENT_3D ( 'NONE', #111, #193, #10 ) ;
#173 = CIRCLE ( 'NONE', #207, 2.100000000000000089 ) ;
#174 = CYLINDRICAL_SURFACE ( 'NONE', #172, 4.000000000000000000 ) ;
#175 = LINE ( 'NONE', #35, #29 ) ;
#176 = APPROVAL_PERSON_ORGANIZATION ( #186, #129, #109 ) ;
#177 = FACE_OUTER_BOUND ( 'NONE', #205, .T. ) ;
#178 = CC_DESIGN_DATE_AND_TIME_ASSIGNMENT ( #100, #77, ( #79 ) ) ;
#179 = CYLINDRICAL_SURFACE ( 'NONE', #48, 4.000000000000000000 ) ;
#180 =( NAMED_UNIT ( * ) SI_UNIT ( $, .STERADIAN. ) SOLID_ANGLE_UNIT ( ) );
#181 = EDGE_CURVE ( 'NONE', #162, #201, #233, .T. ) ;
#182 = PERSON_AND_ORGANIZATION ( #227, #155 ) ;
#183 = LOCAL_TIME ( 17, 8, 26.00000000000000000, #243 ) ;
#184 = ORIENTED_EDGE ( 'NONE', *, *, #143, .F. ) ;
#185 = DIRECTION ( 'NONE',  ( 1.000000000000000000, 0.000000000000000000, 0.000000000000000000 ) ) ;
#186 = PERSON_AND_ORGANIZATION ( #227, #155 ) ;
#187 = VERTEX_POINT ( 'NONE', #230 ) ;
#188 = DATE_AND_TIME ( #105, #65 ) ;
#189 = CIRCLE ( 'NONE', #73, 2.100000000000000089 ) ;
#190 = ADVANCED_FACE ( 'NONE', ( #75 ), #194, .T. ) ;
#191 = APPROVAL_PERSON_ORGANIZATION ( #16, #1, #140 ) ;
#192 = DIRECTION ( 'NONE',  ( 1.000000000000000000, 0.000000000000000000, 0.000000000000000000 ) ) ;
#193 = DIRECTION ( 'NONE',  ( -0.000000000000000000, -0.000000000000000000, -1.000000000000000000 ) ) ;
#194 = PLANE ( 'NONE',  #236 ) ;
#195 = CARTESIAN_POINT ( 'NONE',  ( 0.000000000000000000, 0.000000000000000000, 3.000000000000000000 ) ) ;
#196 = DIRECTION ( 'NONE',  ( 0.000000000000000000, 0.000000000000000000, 1.000000000000000000 ) ) ;
#197 = DIRECTION ( 'NONE',  ( 1.000000000000000000, 0.000000000000000000, 0.000000000000000000 ) ) ;
#198 = ADVANCED_FACE ( 'NONE', ( #231 ), #13, .T. ) ;
#199 = CC_DESIGN_PERSON_AND_ORGANIZATION_ASSIGNMENT ( #166, #167, ( #81 ) ) ;
#200 = COORDINATED_UNIVERSAL_TIME_OFFSET ( 1, 0, .AHEAD. ) ;
#201 = VERTEX_POINT ( 'NONE', #96 ) ;
#202 = COORDINATED_UNIVERSAL_TIME_OFFSET ( 1, 0, .AHEAD. ) ;
#203 =( GEOMETRIC_REPRESENTATION_CONTEXT ( 3 ) GLOBAL_UNCERTAINTY_ASSIGNED_CONTEXT ( ( #27 ) ) GLOBAL_UNIT_ASSIGNED_CONTEXT ( ( #218, #158, #180 ) ) REPRESENTATION_CONTEXT ( 'NONE', 'WORKASPACE' ) );
#204 = CALENDAR_DATE ( 2023, 13, 2 ) ;
#205 = EDGE_LOOP ( 'NONE', ( #222, #142 ) ) ;
#206 = PERSON_AND_ORGANIZATION ( #227, #155 ) ;
#207 = AXIS2_PLACEMENT_3D ( 'NONE', #33, #128, #92 ) ;
#208 = FACE_OUTER_BOUND ( 'NONE', #42, .T. ) ;
#209 = DIRECTION ( 'NONE',  ( -1.000000000000000000, 0.000000000000000000, 0.000000000000000000 ) ) ;
#210 = AXIS2_PLACEMENT_3D ( 'NONE', #64, #130, #213 ) ;
#211 = MANIFOLD_SOLID_BREP ( 'Pøidat vysunutím3', #237 ) ;
#212 = FACE_OUTER_BOUND ( 'NONE', #242, .T. ) ;
#213 = DIRECTION ( 'NONE',  ( 1.000000000000000000, 0.000000000000000000, 0.000000000000000000 ) ) ;
#214 = LINE ( 'NONE', #153, #165 ) ;
#215 = ADVANCED_FACE ( 'NONE', ( #254 ), #179, .T. ) ;
#216 = PERSON_AND_ORGANIZATION_ROLE ( 'design_owner' ) ;
#217 = FACE_BOUND ( 'NONE', #46, .T. ) ;
#218 =( LENGTH_UNIT ( ) NAMED_UNIT ( * ) SI_UNIT ( .MILLI., .METRE. ) );
#219 = CC_DESIGN_PERSON_AND_ORGANIZATION_ASSIGNMENT ( #99, #216, ( #125 ) ) ;
#220 = AXIS2_PLACEMENT_3D ( 'NONE', #70, #74, #53 ) ;
#221 = VERTEX_POINT ( 'NONE', #115 ) ;
#222 = ORIENTED_EDGE ( 'NONE', *, *, #9, .T. ) ;
#223 = LOCAL_TIME ( 17, 8, 26.00000000000000000, #200 ) ;
#224 = VERTEX_POINT ( 'NONE', #83 ) ;
#225 = ADVANCED_FACE ( 'NONE', ( #217, #177 ), #161, .T. ) ;
#226 = APPROVAL_DATE_TIME ( #188, #129 ) ;
#227 = PERSON ( 'NEURÈENÝ', 'NEURÈENÝ', 'NEURÈENÝ', ('NEURÈENÝ'), ('NEURÈENÝ'), ('NEURÈENÝ') ) ;
#228 = EDGE_CURVE ( 'NONE', #162, #144, #126, .T. ) ;
#229 = AXIS2_PLACEMENT_3D ( 'NONE', #137, #39, #197 ) ;
#230 = CARTESIAN_POINT ( 'NONE',  ( 4.000000000000000000, 4.898587196589412829E-16, 0.000000000000000000 ) ) ;
#231 = FACE_OUTER_BOUND ( 'NONE', #23, .T. ) ;
#232 = FACE_OUTER_BOUND ( 'NONE', #49, .T. ) ;
#233 = LINE ( 'NONE', #114, #103 ) ;
#234 = CARTESIAN_POINT ( 'NONE',  ( 0.000000000000000000, 0.000000000000000000, 200.0000000000000000 ) ) ;
#235 = PERSON_AND_ORGANIZATION ( #227, #155 ) ;
#236 = AXIS2_PLACEMENT_3D ( 'NONE', #234, #148, #14 ) ;
#237 = CLOSED_SHELL ( 'NONE', ( #15, #147, #215, #225, #86, #198, #190 ) ) ;
#238 = APPROVAL_DATE_TIME ( #38, #1 ) ;
#239 = DIRECTION ( 'NONE',  ( -1.000000000000000000, 0.000000000000000000, 0.000000000000000000 ) ) ;
#240 = ADVANCED_BREP_SHAPE_REPRESENTATION ( '8f88', ( #211, #91 ), #203 ) ;
#241 = AXIS2_PLACEMENT_3D ( 'NONE', #97, #54, #133 ) ;
#242 = EDGE_LOOP ( 'NONE', ( #104, #69 ) ) ;
#243 = COORDINATED_UNIVERSAL_TIME_OFFSET ( 1, 0, .AHEAD. ) ;
#244 = DIRECTION ( 'NONE',  ( 1.000000000000000000, 0.000000000000000000, 0.000000000000000000 ) ) ;
#245 = PERSON_AND_ORGANIZATION_ROLE ( 'design_supplier' ) ;
#246 = AXIS2_PLACEMENT_3D ( 'NONE', #168, #11, #113 ) ;
#247 = CC_DESIGN_PERSON_AND_ORGANIZATION_ASSIGNMENT ( #206, #245, ( #159 ) ) ;
#248 = DATE_AND_TIME ( #204, #183 ) ;
#249 = CC_DESIGN_APPROVAL ( #1, ( #79 ) ) ;
#250 = ORIENTED_EDGE ( 'NONE', *, *, #106, .T. ) ;
#251 = CARTESIAN_POINT ( 'NONE',  ( -2.100000000000000089, 0.000000000000000000, 200.0000000000000000 ) ) ;
#252 = CARTESIAN_POINT ( 'NONE',  ( -4.000000000000000000, 0.000000000000000000, 0.000000000000000000 ) ) ;
#253 = DIRECTION ( 'NONE',  ( -0.000000000000000000, -0.000000000000000000, -1.000000000000000000 ) ) ;
#254 = FACE_OUTER_BOUND ( 'NONE', #101, .T. ) ;
#255 = COORDINATED_UNIVERSAL_TIME_OFFSET ( 1, 0, .AHEAD. ) ;
ENDSEC;
END-ISO-10303-21;
