ISO-10303-21;
HEADER;
FILE_DESCRIPTION (( 'STEP AP203' ),
    '1' );
FILE_NAME ('0454.STEP',
    '2023-02-13T12:24:22',
    ( '' ),
    ( '' ),
    'SwSTEP 2.0',
    'SolidWorks 2019',
    '' );
FILE_SCHEMA (( 'CONFIG_CONTROL_DESIGN' ));
ENDSEC;

DATA;
#1 = EDGE_CURVE ( 'NONE', #235, #45, #178, .T. ) ;
#2 = ORIENTED_EDGE ( 'NONE', *, *, #87, .F. ) ;
#3 = CYLINDRICAL_SURFACE ( 'NONE', #161, 9.000000000000000000 ) ;
#4 = ADVANCED_FACE ( 'NONE', ( #9 ), #243, .T. ) ;
#5 = DATE_AND_TIME ( #105, #68 ) ;
#6 = LOCAL_TIME ( 13, 24, 22.00000000000000000, #34 ) ;
#7 = EDGE_CURVE ( 'NONE', #131, #235, #75, .T. ) ;
#8 = CARTESIAN_POINT ( 'NONE',  ( 0.000000000000000000, 0.000000000000000000, 7.000000000000000000 ) ) ;
#9 = FACE_OUTER_BOUND ( 'NONE', #28, .T. ) ;
#10 = PERSON_AND_ORGANIZATION ( #187, #94 ) ;
#11 = PLANE ( 'NONE',  #133 ) ;
#12 = CALENDAR_DATE ( 2023, 13, 2 ) ;
#13 = DIRECTION ( 'NONE',  ( 1.000000000000000000, 0.000000000000000000, 0.000000000000000000 ) ) ;
#14 = ORIENTED_EDGE ( 'NONE', *, *, #104, .T. ) ;
#15 = COORDINATED_UNIVERSAL_TIME_OFFSET ( 1, 0, .AHEAD. ) ;
#16 = LOCAL_TIME ( 13, 24, 22.00000000000000000, #115 ) ;
#17 = DIRECTION ( 'NONE',  ( 1.000000000000000000, 0.000000000000000000, 0.000000000000000000 ) ) ;
#18 = CARTESIAN_POINT ( 'NONE',  ( 0.000000000000000000, 0.000000000000000000, 0.000000000000000000 ) ) ;
#19 = APPROVAL_DATE_TIME ( #52, #177 ) ;
#20 = CARTESIAN_POINT ( 'NONE',  ( -6.000000000000000888, 0.000000000000000000, 7.000000000000000000 ) ) ;
#21 = PERSON_AND_ORGANIZATION ( #187, #94 ) ;
#22 = ORIENTED_EDGE ( 'NONE', *, *, #145, .T. ) ;
#23 = SHAPE_DEFINITION_REPRESENTATION ( #222, #78 ) ;
#24 = EDGE_LOOP ( 'NONE', ( #167, #122, #80, #160 ) ) ;
#25 = APPLICATION_PROTOCOL_DEFINITION ( 'international standard', 'config_control_design', 1994, #221 ) ;
#26 = ADVANCED_FACE ( 'NONE', ( #186 ), #11, .T. ) ;
#27 =( NAMED_UNIT ( * ) PLANE_ANGLE_UNIT ( ) SI_UNIT ( $, .RADIAN. ) );
#28 = EDGE_LOOP ( 'NONE', ( #2, #181, #242, #97 ) ) ;
#29 = ADVANCED_FACE ( 'NONE', ( #69 ), #147, .T. ) ;
#30 = CARTESIAN_POINT ( 'NONE',  ( 0.000000000000000000, 0.000000000000000000, 500.0000000000000000 ) ) ;
#31 = APPROVAL_ROLE ( '' ) ;
#32 = LOCAL_TIME ( 13, 24, 22.00000000000000000, #189 ) ;
#33 = LINE ( 'NONE', #143, #119 ) ;
#34 = COORDINATED_UNIVERSAL_TIME_OFFSET ( 1, 0, .AHEAD. ) ;
#35 = UNCERTAINTY_MEASURE_WITH_UNIT (LENGTH_MEASURE( 1.000000000000000082E-05 ), #113, 'distance_accuracy_value', 'NONE');
#36 = EDGE_CURVE ( 'NONE', #208, #165, #169, .T. ) ;
#37 = PERSON_AND_ORGANIZATION_ROLE ( 'creator' ) ;
#38 = CC_DESIGN_APPROVAL ( #177, ( #62 ) ) ;
#39 = DIRECTION ( 'NONE',  ( 1.000000000000000000, 0.000000000000000000, -0.000000000000000000 ) ) ;
#40 = ORIENTED_EDGE ( 'NONE', *, *, #240, .T. ) ;
#41 = ORIENTED_EDGE ( 'NONE', *, *, #63, .F. ) ;
#42 = APPROVAL_PERSON_ORGANIZATION ( #93, #177, #31 ) ;
#43 = DATE_AND_TIME ( #12, #6 ) ;
#44 = MANIFOLD_SOLID_BREP ( 'Pøidat vysunutím3', #218 ) ;
#45 = VERTEX_POINT ( 'NONE', #72 ) ;
#46 = CARTESIAN_POINT ( 'NONE',  ( 6.000000000000000888, 7.347880794884120722E-16, 7.000000000000000000 ) ) ;
#47 = ORIENTED_EDGE ( 'NONE', *, *, #1, .F. ) ;
#48 = EDGE_LOOP ( 'NONE', ( #175, #22 ) ) ;
#49 = DATE_TIME_ROLE ( 'creation_date' ) ;
#50 = DIRECTION ( 'NONE',  ( 1.000000000000000000, 0.000000000000000000, -0.000000000000000000 ) ) ;
#51 = CC_DESIGN_PERSON_AND_ORGANIZATION_ASSIGNMENT ( #227, #37, ( #90 ) ) ;
#52 = DATE_AND_TIME ( #168, #16 ) ;
#53 = CARTESIAN_POINT ( 'NONE',  ( 0.000000000000000000, 0.000000000000000000, 7.000000000000000000 ) ) ;
#54 = SECURITY_CLASSIFICATION_LEVEL ( 'unclassified' ) ;
#55 = AXIS2_PLACEMENT_3D ( 'NONE', #172, #91, #95 ) ;
#56 = ORIENTED_EDGE ( 'NONE', *, *, #215, .F. ) ;
#57 = CIRCLE ( 'NONE', #99, 6.000000000000000888 ) ;
#58 = DIRECTION ( 'NONE',  ( -0.000000000000000000, -0.000000000000000000, -1.000000000000000000 ) ) ;
#59 = EDGE_CURVE ( 'NONE', #208, #64, #164, .T. ) ;
#60 = VECTOR ( 'NONE', #204, 1000.000000000000000 ) ;
#61 = PRODUCT_RELATED_PRODUCT_CATEGORY ( 'detail', '', ( #231 ) ) ;
#62 = PRODUCT_DEFINITION_FORMATION_WITH_SPECIFIED_SOURCE ( 'LIBOVOLNÝ', '', #231, .NOT_KNOWN. ) ;
#63 = EDGE_CURVE ( 'NONE', #165, #194, #57, .T. ) ;
#64 = VERTEX_POINT ( 'NONE', #207 ) ;
#65 = PLANE ( 'NONE',  #127 ) ;
#66 = AXIS2_PLACEMENT_3D ( 'NONE', #18, #190, #128 ) ;
#67 =( NAMED_UNIT ( * ) SI_UNIT ( $, .STERADIAN. ) SOLID_ANGLE_UNIT ( ) );
#68 = LOCAL_TIME ( 13, 24, 22.00000000000000000, #244 ) ;
#69 = FACE_OUTER_BOUND ( 'NONE', #107, .T. ) ;
#70 = DIRECTION ( 'NONE',  ( 0.000000000000000000, 0.000000000000000000, 1.000000000000000000 ) ) ;
#71 = FACE_OUTER_BOUND ( 'NONE', #92, .T. ) ;
#72 = CARTESIAN_POINT ( 'NONE',  ( 9.000000000000000000, 1.102182119232617714E-15, 0.000000000000000000 ) ) ;
#73 = CARTESIAN_POINT ( 'NONE',  ( 0.000000000000000000, 0.000000000000000000, 500.0000000000000000 ) ) ;
#74 = CC_DESIGN_APPROVAL ( #100, ( #90 ) ) ;
#75 = LINE ( 'NONE', #148, #60 ) ;
#76 = APPROVAL_ROLE ( '' ) ;
#77 = PLANE ( 'NONE',  #121 ) ;
#78 = ADVANCED_BREP_SHAPE_REPRESENTATION ( '0454', ( #44, #183 ), #203 ) ;
#79 = APPROVAL_STATUS ( 'not_yet_approved' ) ;
#80 = ORIENTED_EDGE ( 'NONE', *, *, #215, .T. ) ;
#81 = MECHANICAL_CONTEXT ( 'NONE', #206, 'mechanical' ) ;
#82 = EDGE_LOOP ( 'NONE', ( #41, #146 ) ) ;
#83 = DIRECTION ( 'NONE',  ( -0.000000000000000000, -0.000000000000000000, -1.000000000000000000 ) ) ;
#84 = VECTOR ( 'NONE', #108, 1000.000000000000000 ) ;
#85 = APPROVAL_DATE_TIME ( #5, #109 ) ;
#86 = ORIENTED_EDGE ( 'NONE', *, *, #145, .F. ) ;
#87 = EDGE_CURVE ( 'NONE', #217, #45, #33, .T. ) ;
#88 = DIRECTION ( 'NONE',  ( -1.000000000000000000, 0.000000000000000000, 0.000000000000000000 ) ) ;
#89 = PERSON_AND_ORGANIZATION_ROLE ( 'creator' ) ;
#90 = PRODUCT_DEFINITION ( 'NEZNÁMÝ', '', #62, #103 ) ;
#91 = DIRECTION ( 'NONE',  ( 0.000000000000000000, 0.000000000000000000, 1.000000000000000000 ) ) ;
#92 = EDGE_LOOP ( 'NONE', ( #198, #14 ) ) ;
#93 = PERSON_AND_ORGANIZATION ( #187, #94 ) ;
#94 = ORGANIZATION ( 'NEURÈENÝ', 'NEURÈENÝ', '' ) ;
#95 = DIRECTION ( 'NONE',  ( 1.000000000000000000, 0.000000000000000000, 0.000000000000000000 ) ) ;
#96 = EDGE_LOOP ( 'NONE', ( #238, #211, #250, #166 ) ) ;
#97 = ORIENTED_EDGE ( 'NONE', *, *, #1, .T. ) ;
#98 = CARTESIAN_POINT ( 'NONE',  ( -9.000000000000000000, 0.000000000000000000, 7.000000000000000000 ) ) ;
#99 = AXIS2_PLACEMENT_3D ( 'NONE', #151, #229, #226 ) ;
#100 = APPROVAL ( #132, 'NEURÈENÝ' ) ;
#101 = CC_DESIGN_SECURITY_CLASSIFICATION ( #228, ( #62 ) ) ;
#102 = APPROVAL_STATUS ( 'not_yet_approved' ) ;
#103 = DESIGN_CONTEXT ( 'detailed design', #221, 'design' ) ;
#104 = EDGE_CURVE ( 'NONE', #217, #131, #237, .T. ) ;
#105 = CALENDAR_DATE ( 2023, 13, 2 ) ;
#106 = ADVANCED_FACE ( 'NONE', ( #180 ), #3, .T. ) ;
#107 = EDGE_LOOP ( 'NONE', ( #86, #40, #193, #230 ) ) ;
#108 = DIRECTION ( 'NONE',  ( -0.000000000000000000, -0.000000000000000000, -1.000000000000000000 ) ) ;
#109 = APPROVAL ( #102, 'NEURÈENÝ' ) ;
#110 = APPROVAL_PERSON_ORGANIZATION ( #205, #100, #76 ) ;
#111 = DIRECTION ( 'NONE',  ( -0.000000000000000000, -0.000000000000000000, -1.000000000000000000 ) ) ;
#112 = PERSON_AND_ORGANIZATION ( #187, #94 ) ;
#113 =( LENGTH_UNIT ( ) NAMED_UNIT ( * ) SI_UNIT ( .MILLI., .METRE. ) );
#114 = CC_DESIGN_PERSON_AND_ORGANIZATION_ASSIGNMENT ( #155, #185, ( #62 ) ) ;
#115 = COORDINATED_UNIVERSAL_TIME_OFFSET ( 1, 0, .AHEAD. ) ;
#116 = CARTESIAN_POINT ( 'NONE',  ( 0.000000000000000000, 0.000000000000000000, 0.000000000000000000 ) ) ;
#117 = APPROVAL_ROLE ( '' ) ;
#118 = AXIS2_PLACEMENT_3D ( 'NONE', #197, #123, #141 ) ;
#119 = VECTOR ( 'NONE', #216, 1000.000000000000000 ) ;
#120 = DIRECTION ( 'NONE',  ( -1.000000000000000000, 0.000000000000000000, 0.000000000000000000 ) ) ;
#121 = AXIS2_PLACEMENT_3D ( 'NONE', #134, #135, #39 ) ;
#122 = ORIENTED_EDGE ( 'NONE', *, *, #87, .T. ) ;
#123 = DIRECTION ( 'NONE',  ( 0.000000000000000000, 0.000000000000000000, 1.000000000000000000 ) ) ;
#124 = PERSON_AND_ORGANIZATION_ROLE ( 'design_owner' ) ;
#125 = DIRECTION ( 'NONE',  ( 1.000000000000000000, 0.000000000000000000, -0.000000000000000000 ) ) ;
#126 = CC_DESIGN_DATE_AND_TIME_ASSIGNMENT ( #43, #162, ( #228 ) ) ;
#127 = AXIS2_PLACEMENT_3D ( 'NONE', #8, #182, #50 ) ;
#128 = DIRECTION ( 'NONE',  ( 1.000000000000000000, 0.000000000000000000, 0.000000000000000000 ) ) ;
#129 = CC_DESIGN_PERSON_AND_ORGANIZATION_ASSIGNMENT ( #21, #209, ( #228 ) ) ;
#130 = DIRECTION ( 'NONE',  ( 0.000000000000000000, 0.000000000000000000, 1.000000000000000000 ) ) ;
#131 = VERTEX_POINT ( 'NONE', #98 ) ;
#132 = APPROVAL_STATUS ( 'not_yet_approved' ) ;
#133 = AXIS2_PLACEMENT_3D ( 'NONE', #30, #171, #125 ) ;
#134 = CARTESIAN_POINT ( 'NONE',  ( 0.000000000000000000, 0.000000000000000000, 0.000000000000000000 ) ) ;
#135 = DIRECTION ( 'NONE',  ( 0.000000000000000000, 0.000000000000000000, 1.000000000000000000 ) ) ;
#136 = CARTESIAN_POINT ( 'NONE',  ( -9.000000000000000000, 0.000000000000000000, 0.000000000000000000 ) ) ;
#137 = EDGE_CURVE ( 'NONE', #194, #165, #150, .T. ) ;
#138 = CC_DESIGN_PERSON_AND_ORGANIZATION_ASSIGNMENT ( #112, #89, ( #62 ) ) ;
#139 = CARTESIAN_POINT ( 'NONE',  ( 6.000000000000000888, 7.347880794884120722E-16, 500.0000000000000000 ) ) ;
#140 = EDGE_CURVE ( 'NONE', #131, #217, #199, .T. ) ;
#141 = DIRECTION ( 'NONE',  ( 1.000000000000000000, 0.000000000000000000, 0.000000000000000000 ) ) ;
#142 = CARTESIAN_POINT ( 'NONE',  ( 0.000000000000000000, 0.000000000000000000, 0.000000000000000000 ) ) ;
#143 = CARTESIAN_POINT ( 'NONE',  ( 9.000000000000000000, 1.102182119232617714E-15, 7.000000000000000000 ) ) ;
#144 = AXIS2_PLACEMENT_3D ( 'NONE', #174, #224, #251 ) ;
#145 = EDGE_CURVE ( 'NONE', #64, #208, #253, .T. ) ;
#146 = ORIENTED_EDGE ( 'NONE', *, *, #137, .F. ) ;
#147 = CYLINDRICAL_SURFACE ( 'NONE', #248, 6.000000000000000888 ) ;
#148 = CARTESIAN_POINT ( 'NONE',  ( -9.000000000000000000, 0.000000000000000000, 7.000000000000000000 ) ) ;
#149 = ADVANCED_FACE ( 'NONE', ( #170 ), #77, .F. ) ;
#150 = CIRCLE ( 'NONE', #55, 6.000000000000000888 ) ;
#151 = CARTESIAN_POINT ( 'NONE',  ( 0.000000000000000000, 0.000000000000000000, 7.000000000000000000 ) ) ;
#152 = EDGE_LOOP ( 'NONE', ( #47, #56 ) ) ;
#153 = CALENDAR_DATE ( 2023, 13, 2 ) ;
#154 = DATE_AND_TIME ( #232, #32 ) ;
#155 = PERSON_AND_ORGANIZATION ( #187, #94 ) ;
#156 = FACE_OUTER_BOUND ( 'NONE', #96, .T. ) ;
#157 = CARTESIAN_POINT ( 'NONE',  ( 0.000000000000000000, 0.000000000000000000, 500.0000000000000000 ) ) ;
#158 = LINE ( 'NONE', #139, #84 ) ;
#159 = CARTESIAN_POINT ( 'NONE',  ( -6.000000000000000888, 0.000000000000000000, 500.0000000000000000 ) ) ;
#160 = ORIENTED_EDGE ( 'NONE', *, *, #7, .F. ) ;
#161 = AXIS2_PLACEMENT_3D ( 'NONE', #219, #83, #120 ) ;
#162 = DATE_TIME_ROLE ( 'classification_date' ) ;
#163 = CC_DESIGN_APPROVAL ( #109, ( #228 ) ) ;
#164 = CIRCLE ( 'NONE', #225, 6.000000000000000888 ) ;
#165 = VERTEX_POINT ( 'NONE', #20 ) ;
#166 = ORIENTED_EDGE ( 'NONE', *, *, #63, .T. ) ;
#167 = ORIENTED_EDGE ( 'NONE', *, *, #104, .F. ) ;
#168 = CALENDAR_DATE ( 2023, 13, 2 ) ;
#169 = LINE ( 'NONE', #246, #201 ) ;
#170 = FACE_OUTER_BOUND ( 'NONE', #152, .T. ) ;
#171 = DIRECTION ( 'NONE',  ( 0.000000000000000000, 0.000000000000000000, 1.000000000000000000 ) ) ;
#172 = CARTESIAN_POINT ( 'NONE',  ( 0.000000000000000000, 0.000000000000000000, 7.000000000000000000 ) ) ;
#173 = DIRECTION ( 'NONE',  ( -0.000000000000000000, -0.000000000000000000, -1.000000000000000000 ) ) ;
#174 = CARTESIAN_POINT ( 'NONE',  ( 0.000000000000000000, 0.000000000000000000, 500.0000000000000000 ) ) ;
#175 = ORIENTED_EDGE ( 'NONE', *, *, #59, .T. ) ;
#176 = DIRECTION ( 'NONE',  ( 0.000000000000000000, 0.000000000000000000, 1.000000000000000000 ) ) ;
#177 = APPROVAL ( #79, 'NEURÈENÝ' ) ;
#178 = CIRCLE ( 'NONE', #66, 9.000000000000000000 ) ;
#179 = APPROVAL_PERSON_ORGANIZATION ( #212, #109, #117 ) ;
#180 = FACE_OUTER_BOUND ( 'NONE', #24, .T. ) ;
#181 = ORIENTED_EDGE ( 'NONE', *, *, #140, .F. ) ;
#182 = DIRECTION ( 'NONE',  ( 0.000000000000000000, 0.000000000000000000, 1.000000000000000000 ) ) ;
#183 = AXIS2_PLACEMENT_3D ( 'NONE', #142, #236, #195 ) ;
#184 = DIRECTION ( 'NONE',  ( -1.000000000000000000, 0.000000000000000000, 0.000000000000000000 ) ) ;
#185 = PERSON_AND_ORGANIZATION_ROLE ( 'design_supplier' ) ;
#186 = FACE_OUTER_BOUND ( 'NONE', #48, .T. ) ;
#187 = PERSON ( 'NEURÈENÝ', 'NEURÈENÝ', 'NEURÈENÝ', ('NEURÈENÝ'), ('NEURÈENÝ'), ('NEURÈENÝ') ) ;
#188 = AXIS2_PLACEMENT_3D ( 'NONE', #116, #70, #191 ) ;
#189 = COORDINATED_UNIVERSAL_TIME_OFFSET ( 1, 0, .AHEAD. ) ;
#190 = DIRECTION ( 'NONE',  ( 0.000000000000000000, 0.000000000000000000, 1.000000000000000000 ) ) ;
#191 = DIRECTION ( 'NONE',  ( 1.000000000000000000, 0.000000000000000000, 0.000000000000000000 ) ) ;
#192 = ADVANCED_FACE ( 'NONE', ( #156 ), #233, .T. ) ;
#193 = ORIENTED_EDGE ( 'NONE', *, *, #137, .T. ) ;
#194 = VERTEX_POINT ( 'NONE', #46 ) ;
#195 = DIRECTION ( 'NONE',  ( 1.000000000000000000, 0.000000000000000000, 0.000000000000000000 ) ) ;
#196 = DIRECTION ( 'NONE',  ( -1.000000000000000000, 0.000000000000000000, 0.000000000000000000 ) ) ;
#197 = CARTESIAN_POINT ( 'NONE',  ( 0.000000000000000000, 0.000000000000000000, 7.000000000000000000 ) ) ;
#198 = ORIENTED_EDGE ( 'NONE', *, *, #140, .T. ) ;
#199 = CIRCLE ( 'NONE', #234, 9.000000000000000000 ) ;
#200 = CIRCLE ( 'NONE', #188, 9.000000000000000000 ) ;
#201 = VECTOR ( 'NONE', #249, 1000.000000000000000 ) ;
#202 = CARTESIAN_POINT ( 'NONE',  ( 0.000000000000000000, 0.000000000000000000, 500.0000000000000000 ) ) ;
#203 =( GEOMETRIC_REPRESENTATION_CONTEXT ( 3 ) GLOBAL_UNCERTAINTY_ASSIGNED_CONTEXT ( ( #35 ) ) GLOBAL_UNIT_ASSIGNED_CONTEXT ( ( #113, #27, #67 ) ) REPRESENTATION_CONTEXT ( 'NONE', 'WORKASPACE' ) );
#204 = DIRECTION ( 'NONE',  ( -0.000000000000000000, -0.000000000000000000, -1.000000000000000000 ) ) ;
#205 = PERSON_AND_ORGANIZATION ( #187, #94 ) ;
#206 = APPLICATION_CONTEXT ( 'configuration controlled 3d designs of mechanical parts and assemblies' ) ;
#207 = CARTESIAN_POINT ( 'NONE',  ( 6.000000000000000888, 7.347880794884120722E-16, 500.0000000000000000 ) ) ;
#208 = VERTEX_POINT ( 'NONE', #159 ) ;
#209 = PERSON_AND_ORGANIZATION_ROLE ( 'classification_officer' ) ;
#210 = CARTESIAN_POINT ( 'NONE',  ( 0.000000000000000000, 0.000000000000000000, 7.000000000000000000 ) ) ;
#211 = ORIENTED_EDGE ( 'NONE', *, *, #59, .F. ) ;
#212 = PERSON_AND_ORGANIZATION ( #187, #94 ) ;
#213 = CC_DESIGN_DATE_AND_TIME_ASSIGNMENT ( #247, #49, ( #90 ) ) ;
#214 = CC_DESIGN_PERSON_AND_ORGANIZATION_ASSIGNMENT ( #10, #124, ( #231 ) ) ;
#215 = EDGE_CURVE ( 'NONE', #45, #235, #200, .T. ) ;
#216 = DIRECTION ( 'NONE',  ( -0.000000000000000000, -0.000000000000000000, -1.000000000000000000 ) ) ;
#217 = VERTEX_POINT ( 'NONE', #252 ) ;
#218 = CLOSED_SHELL ( 'NONE', ( #29, #106, #4, #255, #149, #192, #26 ) ) ;
#219 = CARTESIAN_POINT ( 'NONE',  ( 0.000000000000000000, 0.000000000000000000, 7.000000000000000000 ) ) ;
#220 = LOCAL_TIME ( 13, 24, 22.00000000000000000, #15 ) ;
#221 = APPLICATION_CONTEXT ( 'configuration controlled 3d designs of mechanical parts and assemblies' ) ;
#222 = PRODUCT_DEFINITION_SHAPE ( 'NONE', 'NONE',  #90 ) ;
#223 = APPROVAL_DATE_TIME ( #154, #100 ) ;
#224 = DIRECTION ( 'NONE',  ( 0.000000000000000000, 0.000000000000000000, 1.000000000000000000 ) ) ;
#225 = AXIS2_PLACEMENT_3D ( 'NONE', #73, #130, #13 ) ;
#226 = DIRECTION ( 'NONE',  ( 1.000000000000000000, 0.000000000000000000, 0.000000000000000000 ) ) ;
#227 = PERSON_AND_ORGANIZATION ( #187, #94 ) ;
#228 = SECURITY_CLASSIFICATION ( '', '', #54 ) ;
#229 = DIRECTION ( 'NONE',  ( 0.000000000000000000, 0.000000000000000000, 1.000000000000000000 ) ) ;
#230 = ORIENTED_EDGE ( 'NONE', *, *, #36, .F. ) ;
#231 = PRODUCT ( '0454', '0454', '', ( #81 ) ) ;
#232 = CALENDAR_DATE ( 2023, 13, 2 ) ;
#233 = CYLINDRICAL_SURFACE ( 'NONE', #254, 6.000000000000000888 ) ;
#234 = AXIS2_PLACEMENT_3D ( 'NONE', #210, #176, #17 ) ;
#235 = VERTEX_POINT ( 'NONE', #136 ) ;
#236 = DIRECTION ( 'NONE',  ( 0.000000000000000000, 0.000000000000000000, 1.000000000000000000 ) ) ;
#237 = CIRCLE ( 'NONE', #118, 9.000000000000000000 ) ;
#238 = ORIENTED_EDGE ( 'NONE', *, *, #240, .F. ) ;
#239 = APPLICATION_PROTOCOL_DEFINITION ( 'international standard', 'config_control_design', 1994, #206 ) ;
#240 = EDGE_CURVE ( 'NONE', #64, #194, #158, .T. ) ;
#241 = AXIS2_PLACEMENT_3D ( 'NONE', #53, #173, #184 ) ;
#242 = ORIENTED_EDGE ( 'NONE', *, *, #7, .T. ) ;
#243 = CYLINDRICAL_SURFACE ( 'NONE', #241, 9.000000000000000000 ) ;
#244 = COORDINATED_UNIVERSAL_TIME_OFFSET ( 1, 0, .AHEAD. ) ;
#245 = FACE_BOUND ( 'NONE', #82, .T. ) ;
#246 = CARTESIAN_POINT ( 'NONE',  ( -6.000000000000000888, 0.000000000000000000, 500.0000000000000000 ) ) ;
#247 = DATE_AND_TIME ( #153, #220 ) ;
#248 = AXIS2_PLACEMENT_3D ( 'NONE', #202, #111, #88 ) ;
#249 = DIRECTION ( 'NONE',  ( -0.000000000000000000, -0.000000000000000000, -1.000000000000000000 ) ) ;
#250 = ORIENTED_EDGE ( 'NONE', *, *, #36, .T. ) ;
#251 = DIRECTION ( 'NONE',  ( 1.000000000000000000, 0.000000000000000000, 0.000000000000000000 ) ) ;
#252 = CARTESIAN_POINT ( 'NONE',  ( 9.000000000000000000, 1.102182119232617714E-15, 7.000000000000000000 ) ) ;
#253 = CIRCLE ( 'NONE', #144, 6.000000000000000888 ) ;
#254 = AXIS2_PLACEMENT_3D ( 'NONE', #157, #58, #196 ) ;
#255 = ADVANCED_FACE ( 'NONE', ( #245, #71 ), #65, .T. ) ;
ENDSEC;
END-ISO-10303-21;
