ISO-10303-21;
HEADER;
FILE_DESCRIPTION (( 'STEP AP203' ),
    '1' );
FILE_NAME ('f813.STEP',
    '2023-02-13T09:47:34',
    ( '' ),
    ( '' ),
    'SwSTEP 2.0',
    'SolidWorks 2019',
    '' );
FILE_SCHEMA (( 'CONFIG_CONTROL_DESIGN' ));
ENDSEC;

DATA;
#1 = PERSON_AND_ORGANIZATION ( #158, #50 ) ;
#2 =( NAMED_UNIT ( * ) PLANE_ANGLE_UNIT ( ) SI_UNIT ( $, .RADIAN. ) );
#3 = EDGE_LOOP ( 'NONE', ( #220, #25 ) ) ;
#4 = AXIS2_PLACEMENT_3D ( 'NONE', #16, #78, #228 ) ;
#5 = ORIENTED_EDGE ( 'NONE', *, *, #12, .T. ) ;
#6 = PERSON_AND_ORGANIZATION ( #158, #50 ) ;
#7 = LINE ( 'NONE', #206, #235 ) ;
#8 = CIRCLE ( 'NONE', #63, 11.00000000000000000 ) ;
#9 = AXIS2_PLACEMENT_3D ( 'NONE', #118, #193, #157 ) ;
#10 = EDGE_CURVE ( 'NONE', #127, #166, #136, .T. ) ;
#11 = PERSON_AND_ORGANIZATION_ROLE ( 'design_owner' ) ;
#12 = EDGE_CURVE ( 'NONE', #166, #127, #93, .T. ) ;
#13 = AXIS2_PLACEMENT_3D ( 'NONE', #194, #40, #81 ) ;
#14 = DIRECTION ( 'NONE',  ( -1.000000000000000000, 0.000000000000000000, 0.000000000000000000 ) ) ;
#15 = FACE_OUTER_BOUND ( 'NONE', #180, .T. ) ;
#16 = CARTESIAN_POINT ( 'NONE',  ( 0.000000000000000000, 0.000000000000000000, 7.000000000000000000 ) ) ;
#17 = DIRECTION ( 'NONE',  ( -0.000000000000000000, -0.000000000000000000, -1.000000000000000000 ) ) ;
#18 = AXIS2_PLACEMENT_3D ( 'NONE', #185, #184, #57 ) ;
#19 = LOCAL_TIME ( 10, 47, 34.00000000000000000, #142 ) ;
#20 = CALENDAR_DATE ( 2023, 13, 2 ) ;
#21 = CARTESIAN_POINT ( 'NONE',  ( 0.000000000000000000, 0.000000000000000000, 0.000000000000000000 ) ) ;
#22 = ORIENTED_EDGE ( 'NONE', *, *, #154, .F. ) ;
#23 = PERSON_AND_ORGANIZATION_ROLE ( 'design_supplier' ) ;
#24 = EDGE_CURVE ( 'NONE', #204, #166, #7, .T. ) ;
#25 = ORIENTED_EDGE ( 'NONE', *, *, #72, .T. ) ;
#26 = PERSON_AND_ORGANIZATION_ROLE ( 'classification_officer' ) ;
#27 = ORIENTED_EDGE ( 'NONE', *, *, #47, .T. ) ;
#28 = CARTESIAN_POINT ( 'NONE',  ( 8.000000000000000000, 9.797174393178823685E-16, 100.0000000000000000 ) ) ;
#29 = EDGE_LOOP ( 'NONE', ( #218, #73, #48, #232 ) ) ;
#30 = CC_DESIGN_APPROVAL ( #131, ( #82 ) ) ;
#31 = VERTEX_POINT ( 'NONE', #172 ) ;
#32 = ADVANCED_FACE ( 'NONE', ( #94 ), #138, .F. ) ;
#33 = DIRECTION ( 'NONE',  ( -0.000000000000000000, -0.000000000000000000, -1.000000000000000000 ) ) ;
#34 = AXIS2_PLACEMENT_3D ( 'NONE', #248, #96, #14 ) ;
#35 = MANIFOLD_SOLID_BREP ( 'Pøidat vysunutím3', #87 ) ;
#36 = COORDINATED_UNIVERSAL_TIME_OFFSET ( 1, 0, .AHEAD. ) ;
#37 = CARTESIAN_POINT ( 'NONE',  ( -8.000000000000000000, 0.000000000000000000, 7.000000000000000000 ) ) ;
#38 = DIRECTION ( 'NONE',  ( -0.000000000000000000, -0.000000000000000000, -1.000000000000000000 ) ) ;
#39 = FACE_OUTER_BOUND ( 'NONE', #3, .T. ) ;
#40 = DIRECTION ( 'NONE',  ( 0.000000000000000000, 0.000000000000000000, 1.000000000000000000 ) ) ;
#41 = ORIENTED_EDGE ( 'NONE', *, *, #12, .F. ) ;
#42 = CC_DESIGN_PERSON_AND_ORGANIZATION_ASSIGNMENT ( #115, #233, ( #46 ) ) ;
#43 =( LENGTH_UNIT ( ) NAMED_UNIT ( * ) SI_UNIT ( .MILLI., .METRE. ) );
#44 = PERSON_AND_ORGANIZATION ( #158, #50 ) ;
#45 = ORIENTED_EDGE ( 'NONE', *, *, #100, .T. ) ;
#46 = PRODUCT_DEFINITION_FORMATION_WITH_SPECIFIED_SOURCE ( 'LIBOVOLNÝ', '', #98, .NOT_KNOWN. ) ;
#47 = EDGE_CURVE ( 'NONE', #240, #147, #241, .T. ) ;
#48 = ORIENTED_EDGE ( 'NONE', *, *, #10, .T. ) ;
#49 = ORIENTED_EDGE ( 'NONE', *, *, #100, .F. ) ;
#50 = ORGANIZATION ( 'NEURÈENÝ', 'NEURÈENÝ', '' ) ;
#51 = CALENDAR_DATE ( 2023, 13, 2 ) ;
#52 = VECTOR ( 'NONE', #101, 1000.000000000000000 ) ;
#53 = APPLICATION_PROTOCOL_DEFINITION ( 'international standard', 'config_control_design', 1994, #186 ) ;
#54 = ORIENTED_EDGE ( 'NONE', *, *, #238, .F. ) ;
#55 = AXIS2_PLACEMENT_3D ( 'NONE', #253, #99, #247 ) ;
#56 = VECTOR ( 'NONE', #198, 1000.000000000000000 ) ;
#57 = DIRECTION ( 'NONE',  ( 1.000000000000000000, 0.000000000000000000, 0.000000000000000000 ) ) ;
#58 = DIRECTION ( 'NONE',  ( 0.000000000000000000, 0.000000000000000000, 1.000000000000000000 ) ) ;
#59 = FACE_BOUND ( 'NONE', #237, .T. ) ;
#60 = PRODUCT_DEFINITION ( 'NEZNÁMÝ', '', #46, #242 ) ;
#61 = DIRECTION ( 'NONE',  ( 1.000000000000000000, 0.000000000000000000, 0.000000000000000000 ) ) ;
#62 = CYLINDRICAL_SURFACE ( 'NONE', #168, 11.00000000000000000 ) ;
#63 = AXIS2_PLACEMENT_3D ( 'NONE', #225, #207, #251 ) ;
#64 = PLANE ( 'NONE',  #4 ) ;
#65 = CC_DESIGN_PERSON_AND_ORGANIZATION_ASSIGNMENT ( #6, #11, ( #98 ) ) ;
#66 = CC_DESIGN_APPROVAL ( #219, ( #46 ) ) ;
#67 = DIRECTION ( 'NONE',  ( 1.000000000000000000, 0.000000000000000000, 0.000000000000000000 ) ) ;
#68 = DATE_TIME_ROLE ( 'classification_date' ) ;
#69 = APPROVAL_PERSON_ORGANIZATION ( #171, #195, #71 ) ;
#70 = ORIENTED_EDGE ( 'NONE', *, *, #109, .F. ) ;
#71 = APPROVAL_ROLE ( '' ) ;
#72 = EDGE_CURVE ( 'NONE', #150, #240, #192, .T. ) ;
#73 = ORIENTED_EDGE ( 'NONE', *, *, #238, .T. ) ;
#74 = CARTESIAN_POINT ( 'NONE',  ( -8.000000000000000000, 0.000000000000000000, 100.0000000000000000 ) ) ;
#75 = APPROVAL_ROLE ( '' ) ;
#76 = FACE_OUTER_BOUND ( 'NONE', #110, .T. ) ;
#77 = PRODUCT_RELATED_PRODUCT_CATEGORY ( 'detail', '', ( #98 ) ) ;
#78 = DIRECTION ( 'NONE',  ( 0.000000000000000000, 0.000000000000000000, 1.000000000000000000 ) ) ;
#79 = CARTESIAN_POINT ( 'NONE',  ( 11.00000000000000000, 1.347111479062088405E-15, 0.000000000000000000 ) ) ;
#80 = DATE_AND_TIME ( #252, #19 ) ;
#81 = DIRECTION ( 'NONE',  ( 1.000000000000000000, 0.000000000000000000, -0.000000000000000000 ) ) ;
#82 = SECURITY_CLASSIFICATION ( '', '', #84 ) ;
#83 = DIRECTION ( 'NONE',  ( -1.000000000000000000, 0.000000000000000000, 0.000000000000000000 ) ) ;
#84 = SECURITY_CLASSIFICATION_LEVEL ( 'unclassified' ) ;
#85 = CARTESIAN_POINT ( 'NONE',  ( 11.00000000000000000, 1.347111479062088405E-15, 7.000000000000000000 ) ) ;
#86 = ORIENTED_EDGE ( 'NONE', *, *, #234, .F. ) ;
#87 = CLOSED_SHELL ( 'NONE', ( #134, #190, #217, #175, #32, #111, #203 ) ) ;
#88 = ORIENTED_EDGE ( 'NONE', *, *, #47, .F. ) ;
#89 = DIRECTION ( 'NONE',  ( -0.000000000000000000, -0.000000000000000000, -1.000000000000000000 ) ) ;
#90 = ORIENTED_EDGE ( 'NONE', *, *, #227, .F. ) ;
#91 = ORIENTED_EDGE ( 'NONE', *, *, #24, .T. ) ;
#92 = ORIENTED_EDGE ( 'NONE', *, *, #234, .T. ) ;
#93 = CIRCLE ( 'NONE', #97, 11.00000000000000000 ) ;
#94 = FACE_OUTER_BOUND ( 'NONE', #151, .T. ) ;
#95 = LOCAL_TIME ( 10, 47, 34.00000000000000000, #117 ) ;
#96 = DIRECTION ( 'NONE',  ( -0.000000000000000000, -0.000000000000000000, -1.000000000000000000 ) ) ;
#97 = AXIS2_PLACEMENT_3D ( 'NONE', #244, #113, #133 ) ;
#98 = PRODUCT ( 'f813', 'f813', '', ( #165 ) ) ;
#99 = DIRECTION ( 'NONE',  ( 0.000000000000000000, 0.000000000000000000, 1.000000000000000000 ) ) ;
#100 = EDGE_CURVE ( 'NONE', #204, #31, #132, .T. ) ;
#101 = DIRECTION ( 'NONE',  ( -0.000000000000000000, -0.000000000000000000, -1.000000000000000000 ) ) ;
#102 = APPROVAL_STATUS ( 'not_yet_approved' ) ;
#103 = DIRECTION ( 'NONE',  ( -1.000000000000000000, 0.000000000000000000, 0.000000000000000000 ) ) ;
#104 = AXIS2_PLACEMENT_3D ( 'NONE', #163, #231, #67 ) ;
#105 = LINE ( 'NONE', #85, #56 ) ;
#106 = VERTEX_POINT ( 'NONE', #140 ) ;
#107 = DATE_AND_TIME ( #20, #187 ) ;
#108 = DIRECTION ( 'NONE',  ( 0.000000000000000000, 0.000000000000000000, 1.000000000000000000 ) ) ;
#109 = EDGE_CURVE ( 'NONE', #147, #106, #182, .T. ) ;
#110 = EDGE_LOOP ( 'NONE', ( #86, #22, #27, #153 ) ) ;
#111 = ADVANCED_FACE ( 'NONE', ( #76 ), #208, .T. ) ;
#112 = UNCERTAINTY_MEASURE_WITH_UNIT (LENGTH_MEASURE( 1.000000000000000082E-05 ), #43, 'distance_accuracy_value', 'NONE');
#113 = DIRECTION ( 'NONE',  ( 0.000000000000000000, 0.000000000000000000, 1.000000000000000000 ) ) ;
#114 = AXIS2_PLACEMENT_3D ( 'NONE', #122, #17, #103 ) ;
#115 = PERSON_AND_ORGANIZATION ( #158, #50 ) ;
#116 = CYLINDRICAL_SURFACE ( 'NONE', #176, 8.000000000000000000 ) ;
#117 = COORDINATED_UNIVERSAL_TIME_OFFSET ( 1, 0, .AHEAD. ) ;
#118 = CARTESIAN_POINT ( 'NONE',  ( 0.000000000000000000, 0.000000000000000000, 100.0000000000000000 ) ) ;
#119 = EDGE_CURVE ( 'NONE', #31, #204, #8, .T. ) ;
#120 = AXIS2_PLACEMENT_3D ( 'NONE', #21, #108, #181 ) ;
#121 = PLANE ( 'NONE',  #13 ) ;
#122 = CARTESIAN_POINT ( 'NONE',  ( 0.000000000000000000, 0.000000000000000000, 7.000000000000000000 ) ) ;
#123 = LINE ( 'NONE', #28, #245 ) ;
#124 = COORDINATED_UNIVERSAL_TIME_OFFSET ( 1, 0, .AHEAD. ) ;
#125 = ORIENTED_EDGE ( 'NONE', *, *, #72, .F. ) ;
#126 = CC_DESIGN_SECURITY_CLASSIFICATION ( #82, ( #46 ) ) ;
#127 = VERTEX_POINT ( 'NONE', #79 ) ;
#128 = SHAPE_DEFINITION_REPRESENTATION ( #243, #155 ) ;
#129 = ORIENTED_EDGE ( 'NONE', *, *, #10, .F. ) ;
#130 = AXIS2_PLACEMENT_3D ( 'NONE', #223, #58, #169 ) ;
#131 = APPROVAL ( #183, 'NEURÈENÝ' ) ;
#132 = CIRCLE ( 'NONE', #55, 11.00000000000000000 ) ;
#133 = DIRECTION ( 'NONE',  ( 1.000000000000000000, 0.000000000000000000, 0.000000000000000000 ) ) ;
#134 = ADVANCED_FACE ( 'NONE', ( #139 ), #116, .T. ) ;
#135 = DATE_AND_TIME ( #51, #95 ) ;
#136 = CIRCLE ( 'NONE', #18, 11.00000000000000000 ) ;
#137 = APPROVAL_DATE_TIME ( #222, #219 ) ;
#138 = PLANE ( 'NONE',  #130 ) ;
#139 = FACE_OUTER_BOUND ( 'NONE', #149, .T. ) ;
#140 = CARTESIAN_POINT ( 'NONE',  ( 8.000000000000000000, 9.797174393178823685E-16, 7.000000000000000000 ) ) ;
#141 = APPLICATION_CONTEXT ( 'configuration controlled 3d designs of mechanical parts and assemblies' ) ;
#142 = COORDINATED_UNIVERSAL_TIME_OFFSET ( 1, 0, .AHEAD. ) ;
#143 = DIRECTION ( 'NONE',  ( 1.000000000000000000, 0.000000000000000000, 0.000000000000000000 ) ) ;
#144 = PERSON_AND_ORGANIZATION ( #158, #50 ) ;
#145 = APPROVAL_PERSON_ORGANIZATION ( #1, #131, #75 ) ;
#146 = CARTESIAN_POINT ( 'NONE',  ( 0.000000000000000000, 0.000000000000000000, 100.0000000000000000 ) ) ;
#147 = VERTEX_POINT ( 'NONE', #37 ) ;
#148 = APPLICATION_PROTOCOL_DEFINITION ( 'international standard', 'config_control_design', 1994, #141 ) ;
#149 = EDGE_LOOP ( 'NONE', ( #125, #92, #202, #88 ) ) ;
#150 = VERTEX_POINT ( 'NONE', #197 ) ;
#151 = EDGE_LOOP ( 'NONE', ( #41, #129 ) ) ;
#152 = CC_DESIGN_APPROVAL ( #195, ( #60 ) ) ;
#153 = ORIENTED_EDGE ( 'NONE', *, *, #109, .T. ) ;
#154 = EDGE_CURVE ( 'NONE', #240, #150, #201, .T. ) ;
#155 = ADVANCED_BREP_SHAPE_REPRESENTATION ( 'f813', ( #35, #120 ), #249 ) ;
#156 = CALENDAR_DATE ( 2023, 13, 2 ) ;
#157 = DIRECTION ( 'NONE',  ( 1.000000000000000000, 0.000000000000000000, 0.000000000000000000 ) ) ;
#158 = PERSON ( 'NEURÈENÝ', 'NEURÈENÝ', 'NEURÈENÝ', ('NEURÈENÝ'), ('NEURÈENÝ'), ('NEURÈENÝ') ) ;
#159 = FACE_OUTER_BOUND ( 'NONE', #29, .T. ) ;
#160 = DIRECTION ( 'NONE',  ( 0.000000000000000000, 0.000000000000000000, 1.000000000000000000 ) ) ;
#161 = DATE_TIME_ROLE ( 'creation_date' ) ;
#162 = CARTESIAN_POINT ( 'NONE',  ( -11.00000000000000000, 0.000000000000000000, 7.000000000000000000 ) ) ;
#163 = CARTESIAN_POINT ( 'NONE',  ( 0.000000000000000000, 0.000000000000000000, 7.000000000000000000 ) ) ;
#164 = CC_DESIGN_PERSON_AND_ORGANIZATION_ASSIGNMENT ( #44, #26, ( #82 ) ) ;
#165 = MECHANICAL_CONTEXT ( 'NONE', #141, 'mechanical' ) ;
#166 = VERTEX_POINT ( 'NONE', #191 ) ;
#167 = AXIS2_PLACEMENT_3D ( 'NONE', #177, #160, #143 ) ;
#168 = AXIS2_PLACEMENT_3D ( 'NONE', #211, #254, #83 ) ;
#169 = DIRECTION ( 'NONE',  ( 1.000000000000000000, 0.000000000000000000, -0.000000000000000000 ) ) ;
#170 = APPROVAL_STATUS ( 'not_yet_approved' ) ;
#171 = PERSON_AND_ORGANIZATION ( #158, #50 ) ;
#172 = CARTESIAN_POINT ( 'NONE',  ( 11.00000000000000000, 1.347111479062088405E-15, 7.000000000000000000 ) ) ;
#173 = COORDINATED_UNIVERSAL_TIME_OFFSET ( 1, 0, .AHEAD. ) ;
#174 = DIRECTION ( 'NONE',  ( 0.000000000000000000, 0.000000000000000000, 1.000000000000000000 ) ) ;
#175 = ADVANCED_FACE ( 'NONE', ( #59, #15 ), #64, .T. ) ;
#176 = AXIS2_PLACEMENT_3D ( 'NONE', #210, #38, #188 ) ;
#177 = CARTESIAN_POINT ( 'NONE',  ( 0.000000000000000000, 0.000000000000000000, 7.000000000000000000 ) ) ;
#178 = CC_DESIGN_DATE_AND_TIME_ASSIGNMENT ( #107, #68, ( #82 ) ) ;
#179 = PERSON_AND_ORGANIZATION ( #158, #50 ) ;
#180 = EDGE_LOOP ( 'NONE', ( #45, #239 ) ) ;
#181 = DIRECTION ( 'NONE',  ( 1.000000000000000000, 0.000000000000000000, 0.000000000000000000 ) ) ;
#182 = CIRCLE ( 'NONE', #167, 8.000000000000000000 ) ;
#183 = APPROVAL_STATUS ( 'not_yet_approved' ) ;
#184 = DIRECTION ( 'NONE',  ( 0.000000000000000000, 0.000000000000000000, 1.000000000000000000 ) ) ;
#185 = CARTESIAN_POINT ( 'NONE',  ( 0.000000000000000000, 0.000000000000000000, 0.000000000000000000 ) ) ;
#186 = APPLICATION_CONTEXT ( 'configuration controlled 3d designs of mechanical parts and assemblies' ) ;
#187 = LOCAL_TIME ( 10, 47, 34.00000000000000000, #124 ) ;
#188 = DIRECTION ( 'NONE',  ( -1.000000000000000000, 0.000000000000000000, 0.000000000000000000 ) ) ;
#189 = APPROVAL_DATE_TIME ( #135, #131 ) ;
#190 = ADVANCED_FACE ( 'NONE', ( #159 ), #62, .T. ) ;
#191 = CARTESIAN_POINT ( 'NONE',  ( -11.00000000000000000, 0.000000000000000000, 0.000000000000000000 ) ) ;
#192 = CIRCLE ( 'NONE', #236, 8.000000000000000000 ) ;
#193 = DIRECTION ( 'NONE',  ( 0.000000000000000000, 0.000000000000000000, 1.000000000000000000 ) ) ;
#194 = CARTESIAN_POINT ( 'NONE',  ( 0.000000000000000000, 0.000000000000000000, 100.0000000000000000 ) ) ;
#195 = APPROVAL ( #170, 'NEURÈENÝ' ) ;
#196 = DATE_AND_TIME ( #226, #255 ) ;
#197 = CARTESIAN_POINT ( 'NONE',  ( 8.000000000000000000, 9.797174393178823685E-16, 100.0000000000000000 ) ) ;
#198 = DIRECTION ( 'NONE',  ( -0.000000000000000000, -0.000000000000000000, -1.000000000000000000 ) ) ;
#199 = CIRCLE ( 'NONE', #104, 8.000000000000000000 ) ;
#200 = CARTESIAN_POINT ( 'NONE',  ( -8.000000000000000000, 0.000000000000000000, 100.0000000000000000 ) ) ;
#201 = CIRCLE ( 'NONE', #9, 8.000000000000000000 ) ;
#202 = ORIENTED_EDGE ( 'NONE', *, *, #227, .T. ) ;
#203 = ADVANCED_FACE ( 'NONE', ( #39 ), #121, .T. ) ;
#204 = VERTEX_POINT ( 'NONE', #162 ) ;
#205 = CC_DESIGN_DATE_AND_TIME_ASSIGNMENT ( #196, #161, ( #60 ) ) ;
#206 = CARTESIAN_POINT ( 'NONE',  ( -11.00000000000000000, 0.000000000000000000, 7.000000000000000000 ) ) ;
#207 = DIRECTION ( 'NONE',  ( 0.000000000000000000, 0.000000000000000000, 1.000000000000000000 ) ) ;
#208 = CYLINDRICAL_SURFACE ( 'NONE', #34, 8.000000000000000000 ) ;
#209 = PERSON_AND_ORGANIZATION ( #158, #50 ) ;
#210 = CARTESIAN_POINT ( 'NONE',  ( 0.000000000000000000, 0.000000000000000000, 100.0000000000000000 ) ) ;
#211 = CARTESIAN_POINT ( 'NONE',  ( 0.000000000000000000, 0.000000000000000000, 7.000000000000000000 ) ) ;
#212 = CC_DESIGN_PERSON_AND_ORGANIZATION_ASSIGNMENT ( #179, #23, ( #46 ) ) ;
#213 = PERSON_AND_ORGANIZATION_ROLE ( 'creator' ) ;
#214 = CYLINDRICAL_SURFACE ( 'NONE', #114, 11.00000000000000000 ) ;
#215 = EDGE_LOOP ( 'NONE', ( #54, #49, #91, #5 ) ) ;
#216 =( NAMED_UNIT ( * ) SI_UNIT ( $, .STERADIAN. ) SOLID_ANGLE_UNIT ( ) );
#217 = ADVANCED_FACE ( 'NONE', ( #229 ), #214, .T. ) ;
#218 = ORIENTED_EDGE ( 'NONE', *, *, #119, .F. ) ;
#219 = APPROVAL ( #102, 'NEURÈENÝ' ) ;
#220 = ORIENTED_EDGE ( 'NONE', *, *, #154, .T. ) ;
#221 = LOCAL_TIME ( 10, 47, 34.00000000000000000, #173 ) ;
#222 = DATE_AND_TIME ( #156, #221 ) ;
#223 = CARTESIAN_POINT ( 'NONE',  ( 0.000000000000000000, 0.000000000000000000, 0.000000000000000000 ) ) ;
#224 = APPROVAL_DATE_TIME ( #80, #195 ) ;
#225 = CARTESIAN_POINT ( 'NONE',  ( 0.000000000000000000, 0.000000000000000000, 7.000000000000000000 ) ) ;
#226 = CALENDAR_DATE ( 2023, 13, 2 ) ;
#227 = EDGE_CURVE ( 'NONE', #106, #147, #199, .T. ) ;
#228 = DIRECTION ( 'NONE',  ( 1.000000000000000000, 0.000000000000000000, -0.000000000000000000 ) ) ;
#229 = FACE_OUTER_BOUND ( 'NONE', #215, .T. ) ;
#230 = APPROVAL_PERSON_ORGANIZATION ( #209, #219, #246 ) ;
#231 = DIRECTION ( 'NONE',  ( 0.000000000000000000, 0.000000000000000000, 1.000000000000000000 ) ) ;
#232 = ORIENTED_EDGE ( 'NONE', *, *, #24, .F. ) ;
#233 = PERSON_AND_ORGANIZATION_ROLE ( 'creator' ) ;
#234 = EDGE_CURVE ( 'NONE', #150, #106, #123, .T. ) ;
#235 = VECTOR ( 'NONE', #33, 1000.000000000000000 ) ;
#236 = AXIS2_PLACEMENT_3D ( 'NONE', #146, #174, #61 ) ;
#237 = EDGE_LOOP ( 'NONE', ( #70, #90 ) ) ;
#238 = EDGE_CURVE ( 'NONE', #31, #127, #105, .T. ) ;
#239 = ORIENTED_EDGE ( 'NONE', *, *, #119, .T. ) ;
#240 = VERTEX_POINT ( 'NONE', #200 ) ;
#241 = LINE ( 'NONE', #74, #52 ) ;
#242 = DESIGN_CONTEXT ( 'detailed design', #186, 'design' ) ;
#243 = PRODUCT_DEFINITION_SHAPE ( 'NONE', 'NONE',  #60 ) ;
#244 = CARTESIAN_POINT ( 'NONE',  ( 0.000000000000000000, 0.000000000000000000, 0.000000000000000000 ) ) ;
#245 = VECTOR ( 'NONE', #89, 1000.000000000000000 ) ;
#246 = APPROVAL_ROLE ( '' ) ;
#247 = DIRECTION ( 'NONE',  ( 1.000000000000000000, 0.000000000000000000, 0.000000000000000000 ) ) ;
#248 = CARTESIAN_POINT ( 'NONE',  ( 0.000000000000000000, 0.000000000000000000, 100.0000000000000000 ) ) ;
#249 =( GEOMETRIC_REPRESENTATION_CONTEXT ( 3 ) GLOBAL_UNCERTAINTY_ASSIGNED_CONTEXT ( ( #112 ) ) GLOBAL_UNIT_ASSIGNED_CONTEXT ( ( #43, #2, #216 ) ) REPRESENTATION_CONTEXT ( 'NONE', 'WORKASPACE' ) );
#250 = CC_DESIGN_PERSON_AND_ORGANIZATION_ASSIGNMENT ( #144, #213, ( #60 ) ) ;
#251 = DIRECTION ( 'NONE',  ( 1.000000000000000000, 0.000000000000000000, 0.000000000000000000 ) ) ;
#252 = CALENDAR_DATE ( 2023, 13, 2 ) ;
#253 = CARTESIAN_POINT ( 'NONE',  ( 0.000000000000000000, 0.000000000000000000, 7.000000000000000000 ) ) ;
#254 = DIRECTION ( 'NONE',  ( -0.000000000000000000, -0.000000000000000000, -1.000000000000000000 ) ) ;
#255 = LOCAL_TIME ( 10, 47, 34.00000000000000000, #36 ) ;
ENDSEC;
END-ISO-10303-21;
