ISO-10303-21;
HEADER;
FILE_DESCRIPTION (( 'STEP AP203' ),
    '1' );
FILE_NAME ('0c88.STEP',
    '2023-02-13T16:41:43',
    ( '' ),
    ( '' ),
    'SwSTEP 2.0',
    'SolidWorks 2019',
    '' );
FILE_SCHEMA (( 'CONFIG_CONTROL_DESIGN' ));
ENDSEC;

DATA;
#1 = ORIENTED_EDGE ( 'NONE', *, *, #217, .F. ) ;
#2 = EDGE_CURVE ( 'NONE', #160, #241, #181, .T. ) ;
#3 = CARTESIAN_POINT ( 'NONE',  ( 2.000000000000000000, 2.449293598294706414E-16, 0.000000000000000000 ) ) ;
#4 = DIRECTION ( 'NONE',  ( -0.000000000000000000, -0.000000000000000000, -1.000000000000000000 ) ) ;
#5 = CIRCLE ( 'NONE', #91, 1.100000000000000089 ) ;
#6 = FACE_OUTER_BOUND ( 'NONE', #177, .T. ) ;
#7 = PRODUCT_RELATED_PRODUCT_CATEGORY ( 'detail', '', ( #32 ) ) ;
#8 = DIRECTION ( 'NONE',  ( -0.000000000000000000, -0.000000000000000000, -1.000000000000000000 ) ) ;
#9 =( GEOMETRIC_REPRESENTATION_CONTEXT ( 3 ) GLOBAL_UNCERTAINTY_ASSIGNED_CONTEXT ( ( #26 ) ) GLOBAL_UNIT_ASSIGNED_CONTEXT ( ( #207, #11, #89 ) ) REPRESENTATION_CONTEXT ( 'NONE', 'WORKASPACE' ) );
#10 = DIRECTION ( 'NONE',  ( 0.000000000000000000, 0.000000000000000000, 1.000000000000000000 ) ) ;
#11 =( NAMED_UNIT ( * ) PLANE_ANGLE_UNIT ( ) SI_UNIT ( $, .RADIAN. ) );
#12 = LINE ( 'NONE', #129, #206 ) ;
#13 = PRODUCT_DEFINITION_FORMATION_WITH_SPECIFIED_SOURCE ( 'LIBOVOLNÝ', '', #32, .NOT_KNOWN. ) ;
#14 = CARTESIAN_POINT ( 'NONE',  ( 0.000000000000000000, 0.000000000000000000, 0.000000000000000000 ) ) ;
#15 = CC_DESIGN_PERSON_AND_ORGANIZATION_ASSIGNMENT ( #93, #213, ( #13 ) ) ;
#16 = PERSON_AND_ORGANIZATION ( #200, #141 ) ;
#17 = AXIS2_PLACEMENT_3D ( 'NONE', #72, #100, #44 ) ;
#18 = SECURITY_CLASSIFICATION_LEVEL ( 'unclassified' ) ;
#19 = SHAPE_DEFINITION_REPRESENTATION ( #50, #51 ) ;
#20 = ORIENTED_EDGE ( 'NONE', *, *, #184, .F. ) ;
#21 = PERSON_AND_ORGANIZATION ( #200, #141 ) ;
#22 = CIRCLE ( 'NONE', #60, 2.000000000000000000 ) ;
#23 = LOCAL_TIME ( 17, 41, 43.00000000000000000, #61 ) ;
#24 = FACE_OUTER_BOUND ( 'NONE', #146, .T. ) ;
#25 = VERTEX_POINT ( 'NONE', #182 ) ;
#26 = UNCERTAINTY_MEASURE_WITH_UNIT (LENGTH_MEASURE( 1.000000000000000082E-05 ), #207, 'distance_accuracy_value', 'NONE');
#27 = DIRECTION ( 'NONE',  ( -0.000000000000000000, -0.000000000000000000, -1.000000000000000000 ) ) ;
#28 = EDGE_CURVE ( 'NONE', #25, #144, #227, .T. ) ;
#29 = EDGE_LOOP ( 'NONE', ( #161, #46, #139, #125 ) ) ;
#30 = AXIS2_PLACEMENT_3D ( 'NONE', #58, #37, #112 ) ;
#31 = CARTESIAN_POINT ( 'NONE',  ( 0.000000000000000000, 0.000000000000000000, 2.000000000000000000 ) ) ;
#32 = PRODUCT ( '0c88', '0c88', '', ( #159 ) ) ;
#33 = CARTESIAN_POINT ( 'NONE',  ( 0.000000000000000000, 0.000000000000000000, 250.0000000000000000 ) ) ;
#34 = ADVANCED_FACE ( 'NONE', ( #6 ), #164, .T. ) ;
#35 = DIRECTION ( 'NONE',  ( 1.000000000000000000, 0.000000000000000000, -0.000000000000000000 ) ) ;
#36 = CARTESIAN_POINT ( 'NONE',  ( -1.100000000000000089, 0.000000000000000000, 2.000000000000000000 ) ) ;
#37 = DIRECTION ( 'NONE',  ( 0.000000000000000000, 0.000000000000000000, 1.000000000000000000 ) ) ;
#38 = CALENDAR_DATE ( 2023, 13, 2 ) ;
#39 = APPROVAL_STATUS ( 'not_yet_approved' ) ;
#40 = CC_DESIGN_PERSON_AND_ORGANIZATION_ASSIGNMENT ( #116, #250, ( #32 ) ) ;
#41 = APPROVAL_PERSON_ORGANIZATION ( #16, #69, #43 ) ;
#42 = APPROVAL_ROLE ( '' ) ;
#43 = APPROVAL_ROLE ( '' ) ;
#44 = DIRECTION ( 'NONE',  ( 1.000000000000000000, 0.000000000000000000, 0.000000000000000000 ) ) ;
#45 = CARTESIAN_POINT ( 'NONE',  ( 0.000000000000000000, 0.000000000000000000, 250.0000000000000000 ) ) ;
#46 = ORIENTED_EDGE ( 'NONE', *, *, #52, .F. ) ;
#47 = ORIENTED_EDGE ( 'NONE', *, *, #82, .T. ) ;
#48 = VERTEX_POINT ( 'NONE', #3 ) ;
#49 = DIRECTION ( 'NONE',  ( 0.000000000000000000, 0.000000000000000000, 1.000000000000000000 ) ) ;
#50 = PRODUCT_DEFINITION_SHAPE ( 'NONE', 'NONE',  #106 ) ;
#51 = ADVANCED_BREP_SHAPE_REPRESENTATION ( '0c88', ( #109, #94 ), #9 ) ;
#52 = EDGE_CURVE ( 'NONE', #197, #194, #98, .T. ) ;
#53 = CARTESIAN_POINT ( 'NONE',  ( 0.000000000000000000, 0.000000000000000000, 0.000000000000000000 ) ) ;
#54 = CARTESIAN_POINT ( 'NONE',  ( -2.000000000000000000, 0.000000000000000000, 0.000000000000000000 ) ) ;
#55 = CIRCLE ( 'NONE', #230, 2.000000000000000000 ) ;
#56 = FACE_OUTER_BOUND ( 'NONE', #203, .T. ) ;
#57 = CC_DESIGN_PERSON_AND_ORGANIZATION_ASSIGNMENT ( #231, #253, ( #215 ) ) ;
#58 = CARTESIAN_POINT ( 'NONE',  ( 0.000000000000000000, 0.000000000000000000, 2.000000000000000000 ) ) ;
#59 = DATE_AND_TIME ( #38, #127 ) ;
#60 = AXIS2_PLACEMENT_3D ( 'NONE', #169, #10, #187 ) ;
#61 = COORDINATED_UNIVERSAL_TIME_OFFSET ( 1, 0, .AHEAD. ) ;
#62 = DIRECTION ( 'NONE',  ( 1.000000000000000000, 0.000000000000000000, 0.000000000000000000 ) ) ;
#63 = ORIENTED_EDGE ( 'NONE', *, *, #254, .T. ) ;
#64 = CLOSED_SHELL ( 'NONE', ( #34, #131, #122, #168, #155, #235, #150 ) ) ;
#65 = ORIENTED_EDGE ( 'NONE', *, *, #2, .T. ) ;
#66 = ORIENTED_EDGE ( 'NONE', *, *, #115, .F. ) ;
#67 = VECTOR ( 'NONE', #27, 1000.000000000000000 ) ;
#68 = CARTESIAN_POINT ( 'NONE',  ( 1.100000000000000089, 1.347111479062088503E-16, 250.0000000000000000 ) ) ;
#69 = APPROVAL ( #79, 'NEURÈENÝ' ) ;
#70 = CYLINDRICAL_SURFACE ( 'NONE', #153, 2.000000000000000000 ) ;
#71 = ORIENTED_EDGE ( 'NONE', *, *, #240, .F. ) ;
#72 = CARTESIAN_POINT ( 'NONE',  ( 0.000000000000000000, 0.000000000000000000, 2.000000000000000000 ) ) ;
#73 = DIRECTION ( 'NONE',  ( 1.000000000000000000, 0.000000000000000000, 0.000000000000000000 ) ) ;
#74 = DIRECTION ( 'NONE',  ( 1.000000000000000000, 0.000000000000000000, -0.000000000000000000 ) ) ;
#75 = CC_DESIGN_PERSON_AND_ORGANIZATION_ASSIGNMENT ( #21, #196, ( #106 ) ) ;
#76 = CC_DESIGN_APPROVAL ( #69, ( #13 ) ) ;
#77 = CARTESIAN_POINT ( 'NONE',  ( 1.100000000000000089, 1.347111479062088503E-16, 250.0000000000000000 ) ) ;
#78 = DATE_AND_TIME ( #190, #180 ) ;
#79 = APPROVAL_STATUS ( 'not_yet_approved' ) ;
#80 = CARTESIAN_POINT ( 'NONE',  ( 0.000000000000000000, 0.000000000000000000, 0.000000000000000000 ) ) ;
#81 = DIRECTION ( 'NONE',  ( 0.000000000000000000, 0.000000000000000000, 1.000000000000000000 ) ) ;
#82 = EDGE_CURVE ( 'NONE', #194, #25, #101, .T. ) ;
#83 = AXIS2_PLACEMENT_3D ( 'NONE', #31, #4, #86 ) ;
#84 = DIRECTION ( 'NONE',  ( -1.000000000000000000, 0.000000000000000000, 0.000000000000000000 ) ) ;
#85 = DIRECTION ( 'NONE',  ( 0.000000000000000000, 0.000000000000000000, 1.000000000000000000 ) ) ;
#86 = DIRECTION ( 'NONE',  ( -1.000000000000000000, 0.000000000000000000, 0.000000000000000000 ) ) ;
#87 = CARTESIAN_POINT ( 'NONE',  ( -2.000000000000000000, 0.000000000000000000, 2.000000000000000000 ) ) ;
#88 = VERTEX_POINT ( 'NONE', #239 ) ;
#89 =( NAMED_UNIT ( * ) SI_UNIT ( $, .STERADIAN. ) SOLID_ANGLE_UNIT ( ) );
#90 = DIRECTION ( 'NONE',  ( -0.000000000000000000, -0.000000000000000000, -1.000000000000000000 ) ) ;
#91 = AXIS2_PLACEMENT_3D ( 'NONE', #108, #246, #73 ) ;
#92 = DIRECTION ( 'NONE',  ( 0.000000000000000000, 0.000000000000000000, 1.000000000000000000 ) ) ;
#93 = PERSON_AND_ORGANIZATION ( #200, #141 ) ;
#94 = AXIS2_PLACEMENT_3D ( 'NONE', #80, #81, #62 ) ;
#95 = DATE_AND_TIME ( #210, #237 ) ;
#96 = PERSON_AND_ORGANIZATION_ROLE ( 'creator' ) ;
#97 = CALENDAR_DATE ( 2023, 13, 2 ) ;
#98 = CIRCLE ( 'NONE', #162, 1.100000000000000089 ) ;
#99 = AXIS2_PLACEMENT_3D ( 'NONE', #111, #49, #35 ) ;
#100 = DIRECTION ( 'NONE',  ( 0.000000000000000000, 0.000000000000000000, 1.000000000000000000 ) ) ;
#101 = LINE ( 'NONE', #68, #242 ) ;
#102 = DIRECTION ( 'NONE',  ( 1.000000000000000000, 0.000000000000000000, 0.000000000000000000 ) ) ;
#103 = DESIGN_CONTEXT ( 'detailed design', #252, 'design' ) ;
#104 = APPROVAL_PERSON_ORGANIZATION ( #188, #202, #251 ) ;
#105 = ORIENTED_EDGE ( 'NONE', *, *, #217, .T. ) ;
#106 = PRODUCT_DEFINITION ( 'NEZNÁMÝ', '', #13, #103 ) ;
#107 = CARTESIAN_POINT ( 'NONE',  ( 0.000000000000000000, 0.000000000000000000, 2.000000000000000000 ) ) ;
#108 = CARTESIAN_POINT ( 'NONE',  ( 0.000000000000000000, 0.000000000000000000, 250.0000000000000000 ) ) ;
#109 = MANIFOLD_SOLID_BREP ( 'Pøidat vysunutím3', #64 ) ;
#110 = DIRECTION ( 'NONE',  ( 0.000000000000000000, 0.000000000000000000, 1.000000000000000000 ) ) ;
#111 = CARTESIAN_POINT ( 'NONE',  ( 0.000000000000000000, 0.000000000000000000, 2.000000000000000000 ) ) ;
#112 = DIRECTION ( 'NONE',  ( 1.000000000000000000, 0.000000000000000000, 0.000000000000000000 ) ) ;
#113 = AXIS2_PLACEMENT_3D ( 'NONE', #53, #110, #152 ) ;
#114 = COORDINATED_UNIVERSAL_TIME_OFFSET ( 1, 0, .AHEAD. ) ;
#115 = EDGE_CURVE ( 'NONE', #144, #25, #255, .T. ) ;
#116 = PERSON_AND_ORGANIZATION ( #200, #141 ) ;
#117 = AXIS2_PLACEMENT_3D ( 'NONE', #33, #92, #74 ) ;
#118 = COORDINATED_UNIVERSAL_TIME_OFFSET ( 1, 0, .AHEAD. ) ;
#119 = EDGE_LOOP ( 'NONE', ( #165, #218 ) ) ;
#120 = PERSON_AND_ORGANIZATION ( #200, #141 ) ;
#121 = ORIENTED_EDGE ( 'NONE', *, *, #28, .T. ) ;
#122 = ADVANCED_FACE ( 'NONE', ( #24 ), #179, .T. ) ;
#123 = ORIENTED_EDGE ( 'NONE', *, *, #212, .F. ) ;
#124 = EDGE_LOOP ( 'NONE', ( #201, #236 ) ) ;
#125 = ORIENTED_EDGE ( 'NONE', *, *, #115, .T. ) ;
#126 = LOCAL_TIME ( 17, 41, 43.00000000000000000, #158 ) ;
#127 = LOCAL_TIME ( 17, 41, 43.00000000000000000, #118 ) ;
#128 = DIRECTION ( 'NONE',  ( -0.000000000000000000, -0.000000000000000000, -1.000000000000000000 ) ) ;
#129 = CARTESIAN_POINT ( 'NONE',  ( 2.000000000000000000, 2.449293598294706414E-16, 2.000000000000000000 ) ) ;
#130 = DIRECTION ( 'NONE',  ( -1.000000000000000000, 0.000000000000000000, 0.000000000000000000 ) ) ;
#131 = ADVANCED_FACE ( 'NONE', ( #163 ), #70, .T. ) ;
#132 = PLANE ( 'NONE',  #113 ) ;
#133 = DIRECTION ( 'NONE',  ( -0.000000000000000000, -0.000000000000000000, -1.000000000000000000 ) ) ;
#134 = AXIS2_PLACEMENT_3D ( 'NONE', #167, #183, #151 ) ;
#135 = DATE_AND_TIME ( #136, #23 ) ;
#136 = CALENDAR_DATE ( 2023, 13, 2 ) ;
#137 = ORIENTED_EDGE ( 'NONE', *, *, #248, .F. ) ;
#138 = AXIS2_PLACEMENT_3D ( 'NONE', #45, #128, #84 ) ;
#139 = ORIENTED_EDGE ( 'NONE', *, *, #212, .T. ) ;
#140 = DIRECTION ( 'NONE',  ( 0.000000000000000000, 0.000000000000000000, 1.000000000000000000 ) ) ;
#141 = ORGANIZATION ( 'NEURÈENÝ', 'NEURÈENÝ', '' ) ;
#142 = APPROVAL_PERSON_ORGANIZATION ( #156, #176, #42 ) ;
#143 = EDGE_LOOP ( 'NONE', ( #66, #178 ) ) ;
#144 = VERTEX_POINT ( 'NONE', #36 ) ;
#145 = CC_DESIGN_PERSON_AND_ORGANIZATION_ASSIGNMENT ( #120, #96, ( #13 ) ) ;
#146 = EDGE_LOOP ( 'NONE', ( #1, #220, #65, #221 ) ) ;
#147 = CIRCLE ( 'NONE', #134, 2.000000000000000000 ) ;
#148 = DIRECTION ( 'NONE',  ( 1.000000000000000000, 0.000000000000000000, 0.000000000000000000 ) ) ;
#149 = DIRECTION ( 'NONE',  ( -0.000000000000000000, -0.000000000000000000, -1.000000000000000000 ) ) ;
#150 = ADVANCED_FACE ( 'NONE', ( #186 ), #225, .T. ) ;
#151 = DIRECTION ( 'NONE',  ( 1.000000000000000000, 0.000000000000000000, 0.000000000000000000 ) ) ;
#152 = DIRECTION ( 'NONE',  ( 1.000000000000000000, 0.000000000000000000, -0.000000000000000000 ) ) ;
#153 = AXIS2_PLACEMENT_3D ( 'NONE', #107, #8, #130 ) ;
#154 = CYLINDRICAL_SURFACE ( 'NONE', #243, 1.100000000000000089 ) ;
#155 = ADVANCED_FACE ( 'NONE', ( #56 ), #132, .F. ) ;
#156 = PERSON_AND_ORGANIZATION ( #200, #141 ) ;
#157 = APPLICATION_CONTEXT ( 'configuration controlled 3d designs of mechanical parts and assemblies' ) ;
#158 = COORDINATED_UNIVERSAL_TIME_OFFSET ( 1, 0, .AHEAD. ) ;
#159 = MECHANICAL_CONTEXT ( 'NONE', #157, 'mechanical' ) ;
#160 = VERTEX_POINT ( 'NONE', #171 ) ;
#161 = ORIENTED_EDGE ( 'NONE', *, *, #82, .F. ) ;
#162 = AXIS2_PLACEMENT_3D ( 'NONE', #198, #140, #219 ) ;
#163 = FACE_OUTER_BOUND ( 'NONE', #234, .T. ) ;
#164 = CYLINDRICAL_SURFACE ( 'NONE', #138, 1.100000000000000089 ) ;
#165 = ORIENTED_EDGE ( 'NONE', *, *, #52, .T. ) ;
#166 = CC_DESIGN_APPROVAL ( #176, ( #215 ) ) ;
#167 = CARTESIAN_POINT ( 'NONE',  ( 0.000000000000000000, 0.000000000000000000, 2.000000000000000000 ) ) ;
#168 = ADVANCED_FACE ( 'NONE', ( #247, #208 ), #170, .T. ) ;
#169 = CARTESIAN_POINT ( 'NONE',  ( 0.000000000000000000, 0.000000000000000000, 0.000000000000000000 ) ) ;
#170 = PLANE ( 'NONE',  #99 ) ;
#171 = CARTESIAN_POINT ( 'NONE',  ( -2.000000000000000000, 0.000000000000000000, 2.000000000000000000 ) ) ;
#172 = DATE_TIME_ROLE ( 'classification_date' ) ;
#173 = APPROVAL_DATE_TIME ( #249, #202 ) ;
#174 = APPROVAL_DATE_TIME ( #59, #176 ) ;
#175 = DATE_TIME_ROLE ( 'creation_date' ) ;
#176 = APPROVAL ( #214, 'NEURÈENÝ' ) ;
#177 = EDGE_LOOP ( 'NONE', ( #20, #47, #121, #123 ) ) ;
#178 = ORIENTED_EDGE ( 'NONE', *, *, #28, .F. ) ;
#179 = CYLINDRICAL_SURFACE ( 'NONE', #83, 2.000000000000000000 ) ;
#180 = LOCAL_TIME ( 17, 41, 43.00000000000000000, #193 ) ;
#181 = LINE ( 'NONE', #87, #67 ) ;
#182 = CARTESIAN_POINT ( 'NONE',  ( 1.100000000000000089, 1.347111479062088503E-16, 2.000000000000000000 ) ) ;
#183 = DIRECTION ( 'NONE',  ( 0.000000000000000000, 0.000000000000000000, 1.000000000000000000 ) ) ;
#184 = EDGE_CURVE ( 'NONE', #194, #197, #5, .T. ) ;
#185 = LINE ( 'NONE', #205, #233 ) ;
#186 = FACE_OUTER_BOUND ( 'NONE', #119, .T. ) ;
#187 = DIRECTION ( 'NONE',  ( 1.000000000000000000, 0.000000000000000000, 0.000000000000000000 ) ) ;
#188 = PERSON_AND_ORGANIZATION ( #200, #141 ) ;
#189 = EDGE_CURVE ( 'NONE', #160, #88, #147, .T. ) ;
#190 = CALENDAR_DATE ( 2023, 13, 2 ) ;
#191 = CC_DESIGN_APPROVAL ( #202, ( #106 ) ) ;
#192 = CC_DESIGN_SECURITY_CLASSIFICATION ( #215, ( #13 ) ) ;
#193 = COORDINATED_UNIVERSAL_TIME_OFFSET ( 1, 0, .AHEAD. ) ;
#194 = VERTEX_POINT ( 'NONE', #77 ) ;
#195 = CC_DESIGN_DATE_AND_TIME_ASSIGNMENT ( #95, #175, ( #106 ) ) ;
#196 = PERSON_AND_ORGANIZATION_ROLE ( 'creator' ) ;
#197 = VERTEX_POINT ( 'NONE', #226 ) ;
#198 = CARTESIAN_POINT ( 'NONE',  ( 0.000000000000000000, 0.000000000000000000, 250.0000000000000000 ) ) ;
#199 = CIRCLE ( 'NONE', #30, 2.000000000000000000 ) ;
#200 = PERSON ( 'NEURÈENÝ', 'NEURÈENÝ', 'NEURÈENÝ', ('NEURÈENÝ'), ('NEURÈENÝ'), ('NEURÈENÝ') ) ;
#201 = ORIENTED_EDGE ( 'NONE', *, *, #189, .T. ) ;
#202 = APPROVAL ( #39, 'NEURÈENÝ' ) ;
#203 = EDGE_LOOP ( 'NONE', ( #137, #216 ) ) ;
#204 = CARTESIAN_POINT ( 'NONE',  ( 0.000000000000000000, 0.000000000000000000, 2.000000000000000000 ) ) ;
#205 = CARTESIAN_POINT ( 'NONE',  ( -1.100000000000000089, 0.000000000000000000, 250.0000000000000000 ) ) ;
#206 = VECTOR ( 'NONE', #90, 1000.000000000000000 ) ;
#207 =( LENGTH_UNIT ( ) NAMED_UNIT ( * ) SI_UNIT ( .MILLI., .METRE. ) );
#208 = FACE_OUTER_BOUND ( 'NONE', #124, .T. ) ;
#209 = FACE_OUTER_BOUND ( 'NONE', #29, .T. ) ;
#210 = CALENDAR_DATE ( 2023, 13, 2 ) ;
#211 = AXIS2_PLACEMENT_3D ( 'NONE', #204, #85, #102 ) ;
#212 = EDGE_CURVE ( 'NONE', #197, #144, #185, .T. ) ;
#213 = PERSON_AND_ORGANIZATION_ROLE ( 'design_supplier' ) ;
#214 = APPROVAL_STATUS ( 'not_yet_approved' ) ;
#215 = SECURITY_CLASSIFICATION ( '', '', #18 ) ;
#216 = ORIENTED_EDGE ( 'NONE', *, *, #254, .F. ) ;
#217 = EDGE_CURVE ( 'NONE', #88, #48, #12, .T. ) ;
#218 = ORIENTED_EDGE ( 'NONE', *, *, #184, .T. ) ;
#219 = DIRECTION ( 'NONE',  ( 1.000000000000000000, 0.000000000000000000, 0.000000000000000000 ) ) ;
#220 = ORIENTED_EDGE ( 'NONE', *, *, #189, .F. ) ;
#221 = ORIENTED_EDGE ( 'NONE', *, *, #248, .T. ) ;
#222 = ORIENTED_EDGE ( 'NONE', *, *, #2, .F. ) ;
#223 = CC_DESIGN_DATE_AND_TIME_ASSIGNMENT ( #135, #172, ( #215 ) ) ;
#224 = CARTESIAN_POINT ( 'NONE',  ( 0.000000000000000000, 0.000000000000000000, 250.0000000000000000 ) ) ;
#225 = PLANE ( 'NONE',  #117 ) ;
#226 = CARTESIAN_POINT ( 'NONE',  ( -1.100000000000000089, 0.000000000000000000, 250.0000000000000000 ) ) ;
#227 = CIRCLE ( 'NONE', #17, 1.100000000000000089 ) ;
#228 = DIRECTION ( 'NONE',  ( -1.000000000000000000, 0.000000000000000000, 0.000000000000000000 ) ) ;
#229 = APPROVAL_DATE_TIME ( #78, #69 ) ;
#230 = AXIS2_PLACEMENT_3D ( 'NONE', #14, #244, #148 ) ;
#231 = PERSON_AND_ORGANIZATION ( #200, #141 ) ;
#232 = APPLICATION_PROTOCOL_DEFINITION ( 'international standard', 'config_control_design', 1994, #252 ) ;
#233 = VECTOR ( 'NONE', #149, 1000.000000000000000 ) ;
#234 = EDGE_LOOP ( 'NONE', ( #71, #105, #63, #222 ) ) ;
#235 = ADVANCED_FACE ( 'NONE', ( #209 ), #154, .T. ) ;
#236 = ORIENTED_EDGE ( 'NONE', *, *, #240, .T. ) ;
#237 = LOCAL_TIME ( 17, 41, 43.00000000000000000, #114 ) ;
#238 = DIRECTION ( 'NONE',  ( -0.000000000000000000, -0.000000000000000000, -1.000000000000000000 ) ) ;
#239 = CARTESIAN_POINT ( 'NONE',  ( 2.000000000000000000, 2.449293598294706414E-16, 2.000000000000000000 ) ) ;
#240 = EDGE_CURVE ( 'NONE', #88, #160, #199, .T. ) ;
#241 = VERTEX_POINT ( 'NONE', #54 ) ;
#242 = VECTOR ( 'NONE', #238, 1000.000000000000000 ) ;
#243 = AXIS2_PLACEMENT_3D ( 'NONE', #224, #133, #228 ) ;
#244 = DIRECTION ( 'NONE',  ( 0.000000000000000000, 0.000000000000000000, 1.000000000000000000 ) ) ;
#245 = APPLICATION_PROTOCOL_DEFINITION ( 'international standard', 'config_control_design', 1994, #157 ) ;
#246 = DIRECTION ( 'NONE',  ( 0.000000000000000000, 0.000000000000000000, 1.000000000000000000 ) ) ;
#247 = FACE_BOUND ( 'NONE', #143, .T. ) ;
#248 = EDGE_CURVE ( 'NONE', #241, #48, #22, .T. ) ;
#249 = DATE_AND_TIME ( #97, #126 ) ;
#250 = PERSON_AND_ORGANIZATION_ROLE ( 'design_owner' ) ;
#251 = APPROVAL_ROLE ( '' ) ;
#252 = APPLICATION_CONTEXT ( 'configuration controlled 3d designs of mechanical parts and assemblies' ) ;
#253 = PERSON_AND_ORGANIZATION_ROLE ( 'classification_officer' ) ;
#254 = EDGE_CURVE ( 'NONE', #48, #241, #55, .T. ) ;
#255 = CIRCLE ( 'NONE', #211, 1.100000000000000089 ) ;
ENDSEC;
END-ISO-10303-21;
