ISO-10303-21;
HEADER;
FILE_DESCRIPTION (( 'STEP AP203' ),
    '1' );
FILE_NAME ('11e8.STEP',
    '2023-02-13T16:22:24',
    ( '' ),
    ( '' ),
    'SwSTEP 2.0',
    'SolidWorks 2019',
    '' );
FILE_SCHEMA (( 'CONFIG_CONTROL_DESIGN' ));
ENDSEC;

DATA;
#1 = EDGE_CURVE ( 'NONE', #238, #18, #182, .T. ) ;
#2 = CARTESIAN_POINT ( 'NONE',  ( -2.000000000000000000, 0.000000000000000000, 100.0000000000000000 ) ) ;
#3 = APPROVAL_ROLE ( '' ) ;
#4 = ORIENTED_EDGE ( 'NONE', *, *, #80, .T. ) ;
#5 = PERSON_AND_ORGANIZATION_ROLE ( 'creator' ) ;
#6 = ORIENTED_EDGE ( 'NONE', *, *, #124, .T. ) ;
#7 = LOCAL_TIME ( 17, 22, 24.00000000000000000, #169 ) ;
#8 = PERSON_AND_ORGANIZATION ( #36, #87 ) ;
#9 = LOCAL_TIME ( 17, 22, 24.00000000000000000, #205 ) ;
#10 = CARTESIAN_POINT ( 'NONE',  ( 4.000000000000000000, 4.898587196589412829E-16, 0.000000000000000000 ) ) ;
#11 = FACE_OUTER_BOUND ( 'NONE', #185, .T. ) ;
#12 = DATE_AND_TIME ( #64, #98 ) ;
#13 = DIRECTION ( 'NONE',  ( -1.000000000000000000, 0.000000000000000000, 0.000000000000000000 ) ) ;
#14 = CARTESIAN_POINT ( 'NONE',  ( -4.000000000000000000, 0.000000000000000000, 3.000000000000000000 ) ) ;
#15 = CARTESIAN_POINT ( 'NONE',  ( 0.000000000000000000, 0.000000000000000000, 0.000000000000000000 ) ) ;
#16 = CC_DESIGN_DATE_AND_TIME_ASSIGNMENT ( #111, #75, ( #179 ) ) ;
#17 = CLOSED_SHELL ( 'NONE', ( #253, #129, #202, #106, #232, #196, #227 ) ) ;
#18 = VERTEX_POINT ( 'NONE', #21 ) ;
#19 = EDGE_CURVE ( 'NONE', #63, #212, #99, .T. ) ;
#20 = ORIENTED_EDGE ( 'NONE', *, *, #124, .F. ) ;
#21 = CARTESIAN_POINT ( 'NONE',  ( -4.000000000000000000, 0.000000000000000000, 3.000000000000000000 ) ) ;
#22 = AXIS2_PLACEMENT_3D ( 'NONE', #78, #69, #207 ) ;
#23 = EDGE_CURVE ( 'NONE', #233, #212, #68, .T. ) ;
#24 = VERTEX_POINT ( 'NONE', #2 ) ;
#25 = DIRECTION ( 'NONE',  ( -0.000000000000000000, -0.000000000000000000, -1.000000000000000000 ) ) ;
#26 = DIRECTION ( 'NONE',  ( 0.000000000000000000, 0.000000000000000000, 1.000000000000000000 ) ) ;
#27 = CC_DESIGN_APPROVAL ( #113, ( #39 ) ) ;
#28 = PLANE ( 'NONE',  #174 ) ;
#29 = CIRCLE ( 'NONE', #22, 2.000000000000000000 ) ;
#30 = CALENDAR_DATE ( 2023, 13, 2 ) ;
#31 = DIRECTION ( 'NONE',  ( 0.000000000000000000, 0.000000000000000000, 1.000000000000000000 ) ) ;
#32 = UNCERTAINTY_MEASURE_WITH_UNIT (LENGTH_MEASURE( 1.000000000000000082E-05 ), #88, 'distance_accuracy_value', 'NONE');
#33 = DATE_TIME_ROLE ( 'classification_date' ) ;
#34 = FACE_BOUND ( 'NONE', #43, .T. ) ;
#35 = DIRECTION ( 'NONE',  ( -0.000000000000000000, -0.000000000000000000, -1.000000000000000000 ) ) ;
#36 = PERSON ( 'NEURÈENÝ', 'NEURÈENÝ', 'NEURÈENÝ', ('NEURÈENÝ'), ('NEURÈENÝ'), ('NEURÈENÝ') ) ;
#37 = AXIS2_PLACEMENT_3D ( 'NONE', #226, #25, #191 ) ;
#38 = ORIENTED_EDGE ( 'NONE', *, *, #161, .F. ) ;
#39 = PRODUCT_DEFINITION_FORMATION_WITH_SPECIFIED_SOURCE ( 'LIBOVOLNÝ', '', #101, .NOT_KNOWN. ) ;
#40 = CARTESIAN_POINT ( 'NONE',  ( 2.000000000000000000, 2.449293598294705921E-16, 100.0000000000000000 ) ) ;
#41 = EDGE_LOOP ( 'NONE', ( #160, #61, #140, #200 ) ) ;
#42 = CC_DESIGN_DATE_AND_TIME_ASSIGNMENT ( #223, #33, ( #188 ) ) ;
#43 = EDGE_LOOP ( 'NONE', ( #216, #217 ) ) ;
#44 = SHAPE_DEFINITION_REPRESENTATION ( #126, #241 ) ;
#45 = VECTOR ( 'NONE', #86, 1000.000000000000000 ) ;
#46 = ORIENTED_EDGE ( 'NONE', *, *, #1, .T. ) ;
#47 = SECURITY_CLASSIFICATION_LEVEL ( 'unclassified' ) ;
#48 = CARTESIAN_POINT ( 'NONE',  ( 0.000000000000000000, 0.000000000000000000, 100.0000000000000000 ) ) ;
#49 = APPROVAL_STATUS ( 'not_yet_approved' ) ;
#50 = LINE ( 'NONE', #14, #45 ) ;
#51 = AXIS2_PLACEMENT_3D ( 'NONE', #90, #170, #152 ) ;
#52 = COORDINATED_UNIVERSAL_TIME_OFFSET ( 1, 0, .AHEAD. ) ;
#53 = CARTESIAN_POINT ( 'NONE',  ( 4.000000000000000000, 4.898587196589412829E-16, 3.000000000000000000 ) ) ;
#54 = PERSON_AND_ORGANIZATION_ROLE ( 'creator' ) ;
#55 = DIRECTION ( 'NONE',  ( 0.000000000000000000, 0.000000000000000000, 1.000000000000000000 ) ) ;
#56 = FACE_OUTER_BOUND ( 'NONE', #183, .T. ) ;
#57 = CC_DESIGN_PERSON_AND_ORGANIZATION_ASSIGNMENT ( #244, #54, ( #39 ) ) ;
#58 = DIRECTION ( 'NONE',  ( 1.000000000000000000, 0.000000000000000000, 0.000000000000000000 ) ) ;
#59 = ORIENTED_EDGE ( 'NONE', *, *, #80, .F. ) ;
#60 = VECTOR ( 'NONE', #222, 1000.000000000000000 ) ;
#61 = ORIENTED_EDGE ( 'NONE', *, *, #161, .T. ) ;
#62 = CC_DESIGN_PERSON_AND_ORGANIZATION_ASSIGNMENT ( #107, #163, ( #101 ) ) ;
#63 = VERTEX_POINT ( 'NONE', #102 ) ;
#64 = CALENDAR_DATE ( 2023, 13, 2 ) ;
#65 = ORIENTED_EDGE ( 'NONE', *, *, #210, .F. ) ;
#66 = APPROVAL_PERSON_ORGANIZATION ( #135, #157, #3 ) ;
#67 = APPLICATION_PROTOCOL_DEFINITION ( 'international standard', 'config_control_design', 1994, #114 ) ;
#68 = CIRCLE ( 'NONE', #236, 2.000000000000000000 ) ;
#69 = DIRECTION ( 'NONE',  ( 0.000000000000000000, 0.000000000000000000, 1.000000000000000000 ) ) ;
#70 = CALENDAR_DATE ( 2023, 13, 2 ) ;
#71 = CARTESIAN_POINT ( 'NONE',  ( -4.000000000000000000, 0.000000000000000000, 0.000000000000000000 ) ) ;
#72 = PRODUCT_RELATED_PRODUCT_CATEGORY ( 'detail', '', ( #101 ) ) ;
#73 = PLANE ( 'NONE',  #95 ) ;
#74 = AXIS2_PLACEMENT_3D ( 'NONE', #134, #31, #190 ) ;
#75 = DATE_TIME_ROLE ( 'creation_date' ) ;
#76 = CARTESIAN_POINT ( 'NONE',  ( 0.000000000000000000, 0.000000000000000000, 100.0000000000000000 ) ) ;
#77 = VECTOR ( 'NONE', #255, 1000.000000000000000 ) ;
#78 = CARTESIAN_POINT ( 'NONE',  ( 0.000000000000000000, 0.000000000000000000, 100.0000000000000000 ) ) ;
#79 = DIRECTION ( 'NONE',  ( 1.000000000000000000, 0.000000000000000000, 0.000000000000000000 ) ) ;
#80 = EDGE_CURVE ( 'NONE', #63, #24, #29, .T. ) ;
#81 = CARTESIAN_POINT ( 'NONE',  ( 0.000000000000000000, 0.000000000000000000, 3.000000000000000000 ) ) ;
#82 = ORIENTED_EDGE ( 'NONE', *, *, #19, .F. ) ;
#83 = CALENDAR_DATE ( 2023, 13, 2 ) ;
#84 = ORIENTED_EDGE ( 'NONE', *, *, #248, .T. ) ;
#85 = APPROVAL_ROLE ( '' ) ;
#86 = DIRECTION ( 'NONE',  ( -0.000000000000000000, -0.000000000000000000, -1.000000000000000000 ) ) ;
#87 = ORGANIZATION ( 'NEURÈENÝ', 'NEURÈENÝ', '' ) ;
#88 =( LENGTH_UNIT ( ) NAMED_UNIT ( * ) SI_UNIT ( .MILLI., .METRE. ) );
#89 = DIRECTION ( 'NONE',  ( -0.000000000000000000, -0.000000000000000000, -1.000000000000000000 ) ) ;
#90 = CARTESIAN_POINT ( 'NONE',  ( 0.000000000000000000, 0.000000000000000000, 0.000000000000000000 ) ) ;
#91 = APPROVAL_DATE_TIME ( #12, #113 ) ;
#92 = DIRECTION ( 'NONE',  ( 1.000000000000000000, 0.000000000000000000, 0.000000000000000000 ) ) ;
#93 = CC_DESIGN_PERSON_AND_ORGANIZATION_ASSIGNMENT ( #167, #172, ( #39 ) ) ;
#94 = DESIGN_CONTEXT ( 'detailed design', #234, 'design' ) ;
#95 = AXIS2_PLACEMENT_3D ( 'NONE', #224, #132, #251 ) ;
#96 = LINE ( 'NONE', #137, #204 ) ;
#97 = CIRCLE ( 'NONE', #220, 2.000000000000000000 ) ;
#98 = LOCAL_TIME ( 17, 22, 24.00000000000000000, #246 ) ;
#99 = LINE ( 'NONE', #40, #77 ) ;
#100 = DIRECTION ( 'NONE',  ( 1.000000000000000000, 0.000000000000000000, 0.000000000000000000 ) ) ;
#101 = PRODUCT ( '11e8', '11e8', '', ( #147 ) ) ;
#102 = CARTESIAN_POINT ( 'NONE',  ( 2.000000000000000000, 2.449293598294705921E-16, 100.0000000000000000 ) ) ;
#103 = AXIS2_PLACEMENT_3D ( 'NONE', #125, #195, #58 ) ;
#104 =( NAMED_UNIT ( * ) SI_UNIT ( $, .STERADIAN. ) SOLID_ANGLE_UNIT ( ) );
#105 = VERTEX_POINT ( 'NONE', #10 ) ;
#106 = ADVANCED_FACE ( 'NONE', ( #34, #56 ), #28, .T. ) ;
#107 = PERSON_AND_ORGANIZATION ( #36, #87 ) ;
#108 = DIRECTION ( 'NONE',  ( 1.000000000000000000, 0.000000000000000000, -0.000000000000000000 ) ) ;
#109 =( GEOMETRIC_REPRESENTATION_CONTEXT ( 3 ) GLOBAL_UNCERTAINTY_ASSIGNED_CONTEXT ( ( #32 ) ) GLOBAL_UNIT_ASSIGNED_CONTEXT ( ( #88, #133, #104 ) ) REPRESENTATION_CONTEXT ( 'NONE', 'WORKASPACE' ) );
#110 = PLANE ( 'NONE',  #51 ) ;
#111 = DATE_AND_TIME ( #221, #7 ) ;
#112 = DIRECTION ( 'NONE',  ( -0.000000000000000000, -0.000000000000000000, -1.000000000000000000 ) ) ;
#113 = APPROVAL ( #249, 'NEURÈENÝ' ) ;
#114 = APPLICATION_CONTEXT ( 'configuration controlled 3d designs of mechanical parts and assemblies' ) ;
#115 = PERSON_AND_ORGANIZATION ( #36, #87 ) ;
#116 = DIRECTION ( 'NONE',  ( 1.000000000000000000, 0.000000000000000000, 0.000000000000000000 ) ) ;
#117 = DIRECTION ( 'NONE',  ( 1.000000000000000000, 0.000000000000000000, 0.000000000000000000 ) ) ;
#118 = CC_DESIGN_PERSON_AND_ORGANIZATION_ASSIGNMENT ( #8, #5, ( #179 ) ) ;
#119 = CC_DESIGN_SECURITY_CLASSIFICATION ( #188, ( #39 ) ) ;
#120 = APPROVAL_PERSON_ORGANIZATION ( #149, #215, #184 ) ;
#121 = ORIENTED_EDGE ( 'NONE', *, *, #155, .T. ) ;
#122 = CIRCLE ( 'NONE', #139, 4.000000000000000000 ) ;
#123 = DIRECTION ( 'NONE',  ( 0.000000000000000000, 0.000000000000000000, 1.000000000000000000 ) ) ;
#124 = EDGE_CURVE ( 'NONE', #18, #238, #122, .T. ) ;
#125 = CARTESIAN_POINT ( 'NONE',  ( 0.000000000000000000, 0.000000000000000000, 3.000000000000000000 ) ) ;
#126 = PRODUCT_DEFINITION_SHAPE ( 'NONE', 'NONE',  #179 ) ;
#127 = ORIENTED_EDGE ( 'NONE', *, *, #19, .T. ) ;
#128 = CIRCLE ( 'NONE', #144, 4.000000000000000000 ) ;
#129 = ADVANCED_FACE ( 'NONE', ( #189 ), #230, .T. ) ;
#130 = CARTESIAN_POINT ( 'NONE',  ( 0.000000000000000000, 0.000000000000000000, 3.000000000000000000 ) ) ;
#131 = COORDINATED_UNIVERSAL_TIME_OFFSET ( 1, 0, .AHEAD. ) ;
#132 = DIRECTION ( 'NONE',  ( 0.000000000000000000, 0.000000000000000000, 1.000000000000000000 ) ) ;
#133 =( NAMED_UNIT ( * ) PLANE_ANGLE_UNIT ( ) SI_UNIT ( $, .RADIAN. ) );
#134 = CARTESIAN_POINT ( 'NONE',  ( 0.000000000000000000, 0.000000000000000000, 0.000000000000000000 ) ) ;
#135 = PERSON_AND_ORGANIZATION ( #36, #87 ) ;
#136 = CARTESIAN_POINT ( 'NONE',  ( 0.000000000000000000, 0.000000000000000000, 3.000000000000000000 ) ) ;
#137 = CARTESIAN_POINT ( 'NONE',  ( 4.000000000000000000, 4.898587196589412829E-16, 3.000000000000000000 ) ) ;
#138 = ORIENTED_EDGE ( 'NONE', *, *, #23, .T. ) ;
#139 = AXIS2_PLACEMENT_3D ( 'NONE', #153, #146, #117 ) ;
#140 = ORIENTED_EDGE ( 'NONE', *, *, #254, .T. ) ;
#141 = APPROVAL_DATE_TIME ( #162, #157 ) ;
#142 = EDGE_CURVE ( 'NONE', #18, #214, #50, .T. ) ;
#143 = EDGE_LOOP ( 'NONE', ( #197, #194 ) ) ;
#144 = AXIS2_PLACEMENT_3D ( 'NONE', #15, #252, #79 ) ;
#145 = APPROVAL_DATE_TIME ( #228, #215 ) ;
#146 = DIRECTION ( 'NONE',  ( 0.000000000000000000, 0.000000000000000000, 1.000000000000000000 ) ) ;
#147 = MECHANICAL_CONTEXT ( 'NONE', #114, 'mechanical' ) ;
#148 = FACE_OUTER_BOUND ( 'NONE', #180, .T. ) ;
#149 = PERSON_AND_ORGANIZATION ( #36, #87 ) ;
#150 = CARTESIAN_POINT ( 'NONE',  ( -2.000000000000000000, 0.000000000000000000, 3.000000000000000000 ) ) ;
#151 = PERSON_AND_ORGANIZATION_ROLE ( 'classification_officer' ) ;
#152 = DIRECTION ( 'NONE',  ( 1.000000000000000000, 0.000000000000000000, -0.000000000000000000 ) ) ;
#153 = CARTESIAN_POINT ( 'NONE',  ( 0.000000000000000000, 0.000000000000000000, 3.000000000000000000 ) ) ;
#154 = CC_DESIGN_APPROVAL ( #215, ( #179 ) ) ;
#155 = EDGE_CURVE ( 'NONE', #24, #233, #201, .T. ) ;
#156 = ORIENTED_EDGE ( 'NONE', *, *, #192, .T. ) ;
#157 = APPROVAL ( #49, 'NEURÈENÝ' ) ;
#158 = ORIENTED_EDGE ( 'NONE', *, *, #210, .T. ) ;
#159 = CIRCLE ( 'NONE', #177, 2.000000000000000000 ) ;
#160 = ORIENTED_EDGE ( 'NONE', *, *, #1, .F. ) ;
#161 = EDGE_CURVE ( 'NONE', #238, #105, #96, .T. ) ;
#162 = DATE_AND_TIME ( #83, #235 ) ;
#163 = PERSON_AND_ORGANIZATION_ROLE ( 'design_owner' ) ;
#164 = DIRECTION ( 'NONE',  ( -1.000000000000000000, 0.000000000000000000, 0.000000000000000000 ) ) ;
#165 = CIRCLE ( 'NONE', #74, 4.000000000000000000 ) ;
#166 = CC_DESIGN_APPROVAL ( #157, ( #188 ) ) ;
#167 = PERSON_AND_ORGANIZATION ( #36, #87 ) ;
#168 = CYLINDRICAL_SURFACE ( 'NONE', #231, 2.000000000000000000 ) ;
#169 = COORDINATED_UNIVERSAL_TIME_OFFSET ( 1, 0, .AHEAD. ) ;
#170 = DIRECTION ( 'NONE',  ( 0.000000000000000000, 0.000000000000000000, 1.000000000000000000 ) ) ;
#171 = CC_DESIGN_PERSON_AND_ORGANIZATION_ASSIGNMENT ( #218, #151, ( #188 ) ) ;
#172 = PERSON_AND_ORGANIZATION_ROLE ( 'design_supplier' ) ;
#173 = FACE_OUTER_BOUND ( 'NONE', #219, .T. ) ;
#174 = AXIS2_PLACEMENT_3D ( 'NONE', #136, #193, #108 ) ;
#175 = CARTESIAN_POINT ( 'NONE',  ( 0.000000000000000000, 0.000000000000000000, 100.0000000000000000 ) ) ;
#176 = DIRECTION ( 'NONE',  ( -1.000000000000000000, 0.000000000000000000, 0.000000000000000000 ) ) ;
#177 = AXIS2_PLACEMENT_3D ( 'NONE', #175, #247, #92 ) ;
#178 = LOCAL_TIME ( 17, 22, 24.00000000000000000, #52 ) ;
#179 = PRODUCT_DEFINITION ( 'NEZNÁMÝ', '', #39, #94 ) ;
#180 = EDGE_LOOP ( 'NONE', ( #158, #4 ) ) ;
#181 = EDGE_LOOP ( 'NONE', ( #82, #65, #121, #138 ) ) ;
#182 = CIRCLE ( 'NONE', #103, 4.000000000000000000 ) ;
#183 = EDGE_LOOP ( 'NONE', ( #6, #46 ) ) ;
#184 = APPROVAL_ROLE ( '' ) ;
#185 = EDGE_LOOP ( 'NONE', ( #38, #20, #237, #84 ) ) ;
#186 = APPLICATION_PROTOCOL_DEFINITION ( 'international standard', 'config_control_design', 1994, #234 ) ;
#187 = FACE_OUTER_BOUND ( 'NONE', #181, .T. ) ;
#188 = SECURITY_CLASSIFICATION ( '', '', #47 ) ;
#189 = FACE_OUTER_BOUND ( 'NONE', #41, .T. ) ;
#190 = DIRECTION ( 'NONE',  ( 1.000000000000000000, 0.000000000000000000, 0.000000000000000000 ) ) ;
#191 = DIRECTION ( 'NONE',  ( -1.000000000000000000, 0.000000000000000000, 0.000000000000000000 ) ) ;
#192 = EDGE_CURVE ( 'NONE', #212, #233, #97, .T. ) ;
#193 = DIRECTION ( 'NONE',  ( 0.000000000000000000, 0.000000000000000000, 1.000000000000000000 ) ) ;
#194 = ORIENTED_EDGE ( 'NONE', *, *, #254, .F. ) ;
#195 = DIRECTION ( 'NONE',  ( 0.000000000000000000, 0.000000000000000000, 1.000000000000000000 ) ) ;
#196 = ADVANCED_FACE ( 'NONE', ( #187 ), #168, .T. ) ;
#197 = ORIENTED_EDGE ( 'NONE', *, *, #248, .F. ) ;
#198 = AXIS2_PLACEMENT_3D ( 'NONE', #130, #89, #13 ) ;
#199 = CARTESIAN_POINT ( 'NONE',  ( 0.000000000000000000, 0.000000000000000000, 0.000000000000000000 ) ) ;
#200 = ORIENTED_EDGE ( 'NONE', *, *, #142, .F. ) ;
#201 = LINE ( 'NONE', #206, #60 ) ;
#202 = ADVANCED_FACE ( 'NONE', ( #11 ), #243, .T. ) ;
#203 = FACE_OUTER_BOUND ( 'NONE', #143, .T. ) ;
#204 = VECTOR ( 'NONE', #112, 1000.000000000000000 ) ;
#205 = COORDINATED_UNIVERSAL_TIME_OFFSET ( 1, 0, .AHEAD. ) ;
#206 = CARTESIAN_POINT ( 'NONE',  ( -2.000000000000000000, 0.000000000000000000, 100.0000000000000000 ) ) ;
#207 = DIRECTION ( 'NONE',  ( 1.000000000000000000, 0.000000000000000000, 0.000000000000000000 ) ) ;
#208 = CARTESIAN_POINT ( 'NONE',  ( 0.000000000000000000, 0.000000000000000000, 3.000000000000000000 ) ) ;
#209 = AXIS2_PLACEMENT_3D ( 'NONE', #76, #229, #176 ) ;
#210 = EDGE_CURVE ( 'NONE', #24, #63, #159, .T. ) ;
#211 = MANIFOLD_SOLID_BREP ( 'Pøidat vysunutím3', #17 ) ;
#212 = VERTEX_POINT ( 'NONE', #245 ) ;
#213 = APPROVAL_PERSON_ORGANIZATION ( #115, #113, #85 ) ;
#214 = VERTEX_POINT ( 'NONE', #71 ) ;
#215 = APPROVAL ( #225, 'NEURÈENÝ' ) ;
#216 = ORIENTED_EDGE ( 'NONE', *, *, #23, .F. ) ;
#217 = ORIENTED_EDGE ( 'NONE', *, *, #192, .F. ) ;
#218 = PERSON_AND_ORGANIZATION ( #36, #87 ) ;
#219 = EDGE_LOOP ( 'NONE', ( #59, #127, #156, #240 ) ) ;
#220 = AXIS2_PLACEMENT_3D ( 'NONE', #208, #55, #116 ) ;
#221 = CALENDAR_DATE ( 2023, 13, 2 ) ;
#222 = DIRECTION ( 'NONE',  ( -0.000000000000000000, -0.000000000000000000, -1.000000000000000000 ) ) ;
#223 = DATE_AND_TIME ( #70, #178 ) ;
#224 = CARTESIAN_POINT ( 'NONE',  ( 0.000000000000000000, 0.000000000000000000, 100.0000000000000000 ) ) ;
#225 = APPROVAL_STATUS ( 'not_yet_approved' ) ;
#226 = CARTESIAN_POINT ( 'NONE',  ( 0.000000000000000000, 0.000000000000000000, 3.000000000000000000 ) ) ;
#227 = ADVANCED_FACE ( 'NONE', ( #148 ), #73, .T. ) ;
#228 = DATE_AND_TIME ( #30, #9 ) ;
#229 = DIRECTION ( 'NONE',  ( -0.000000000000000000, -0.000000000000000000, -1.000000000000000000 ) ) ;
#230 = CYLINDRICAL_SURFACE ( 'NONE', #198, 4.000000000000000000 ) ;
#231 = AXIS2_PLACEMENT_3D ( 'NONE', #48, #35, #164 ) ;
#232 = ADVANCED_FACE ( 'NONE', ( #203 ), #110, .F. ) ;
#233 = VERTEX_POINT ( 'NONE', #150 ) ;
#234 = APPLICATION_CONTEXT ( 'configuration controlled 3d designs of mechanical parts and assemblies' ) ;
#235 = LOCAL_TIME ( 17, 22, 24.00000000000000000, #131 ) ;
#236 = AXIS2_PLACEMENT_3D ( 'NONE', #81, #123, #100 ) ;
#237 = ORIENTED_EDGE ( 'NONE', *, *, #142, .T. ) ;
#238 = VERTEX_POINT ( 'NONE', #53 ) ;
#239 = DIRECTION ( 'NONE',  ( 1.000000000000000000, 0.000000000000000000, 0.000000000000000000 ) ) ;
#240 = ORIENTED_EDGE ( 'NONE', *, *, #155, .F. ) ;
#241 = ADVANCED_BREP_SHAPE_REPRESENTATION ( '11e8', ( #211, #242 ), #109 ) ;
#242 = AXIS2_PLACEMENT_3D ( 'NONE', #199, #26, #239 ) ;
#243 = CYLINDRICAL_SURFACE ( 'NONE', #37, 4.000000000000000000 ) ;
#244 = PERSON_AND_ORGANIZATION ( #36, #87 ) ;
#245 = CARTESIAN_POINT ( 'NONE',  ( 2.000000000000000000, 2.449293598294705921E-16, 3.000000000000000000 ) ) ;
#246 = COORDINATED_UNIVERSAL_TIME_OFFSET ( 1, 0, .AHEAD. ) ;
#247 = DIRECTION ( 'NONE',  ( 0.000000000000000000, 0.000000000000000000, 1.000000000000000000 ) ) ;
#248 = EDGE_CURVE ( 'NONE', #214, #105, #165, .T. ) ;
#249 = APPROVAL_STATUS ( 'not_yet_approved' ) ;
#250 = CYLINDRICAL_SURFACE ( 'NONE', #209, 2.000000000000000000 ) ;
#251 = DIRECTION ( 'NONE',  ( 1.000000000000000000, 0.000000000000000000, -0.000000000000000000 ) ) ;
#252 = DIRECTION ( 'NONE',  ( 0.000000000000000000, 0.000000000000000000, 1.000000000000000000 ) ) ;
#253 = ADVANCED_FACE ( 'NONE', ( #173 ), #250, .T. ) ;
#254 = EDGE_CURVE ( 'NONE', #105, #214, #128, .T. ) ;
#255 = DIRECTION ( 'NONE',  ( -0.000000000000000000, -0.000000000000000000, -1.000000000000000000 ) ) ;
ENDSEC;
END-ISO-10303-21;
