ISO-10303-21;
HEADER;
FILE_DESCRIPTION (( 'STEP AP203' ),
    '1' );
FILE_NAME ('e85a.STEP',
    '2023-02-13T12:26:06',
    ( '' ),
    ( '' ),
    'SwSTEP 2.0',
    'SolidWorks 2019',
    '' );
FILE_SCHEMA (( 'CONFIG_CONTROL_DESIGN' ));
ENDSEC;

DATA;
#1 = ORIENTED_EDGE ( 'NONE', *, *, #30, .F. ) ;
#2 = CARTESIAN_POINT ( 'NONE',  ( 6.000000000000000888, 7.347880794884119736E-16, 100.0000000000000000 ) ) ;
#3 = CALENDAR_DATE ( 2023, 13, 2 ) ;
#4 = CIRCLE ( 'NONE', #190, 6.000000000000000888 ) ;
#5 = LOCAL_TIME ( 13, 26, 6.000000000000000000, #110 ) ;
#6 = PERSON_AND_ORGANIZATION ( #215, #253 ) ;
#7 = ORIENTED_EDGE ( 'NONE', *, *, #200, .F. ) ;
#8 = FACE_BOUND ( 'NONE', #173, .T. ) ;
#9 = COORDINATED_UNIVERSAL_TIME_OFFSET ( 1, 0, .AHEAD. ) ;
#10 = DIRECTION ( 'NONE',  ( 0.000000000000000000, 0.000000000000000000, 1.000000000000000000 ) ) ;
#11 = PRODUCT ( 'e85a', 'e85a', '', ( #198 ) ) ;
#12 = CARTESIAN_POINT ( 'NONE',  ( 9.000000000000000000, 1.102182119232617714E-15, 0.000000000000000000 ) ) ;
#13 = CC_DESIGN_PERSON_AND_ORGANIZATION_ASSIGNMENT ( #24, #99, ( #106 ) ) ;
#14 = PRODUCT_DEFINITION_SHAPE ( 'NONE', 'NONE',  #106 ) ;
#15 = DIRECTION ( 'NONE',  ( -1.000000000000000000, 0.000000000000000000, 0.000000000000000000 ) ) ;
#16 = EDGE_CURVE ( 'NONE', #130, #176, #248, .T. ) ;
#17 = DATE_TIME_ROLE ( 'creation_date' ) ;
#18 = PERSON_AND_ORGANIZATION_ROLE ( 'classification_officer' ) ;
#19 = DIRECTION ( 'NONE',  ( 0.000000000000000000, 0.000000000000000000, 1.000000000000000000 ) ) ;
#20 = EDGE_LOOP ( 'NONE', ( #152, #236, #94, #7 ) ) ;
#21 = APPROVAL_PERSON_ORGANIZATION ( #95, #125, #164 ) ;
#22 = CARTESIAN_POINT ( 'NONE',  ( 0.000000000000000000, 0.000000000000000000, 7.000000000000000000 ) ) ;
#23 = LINE ( 'NONE', #2, #181 ) ;
#24 = PERSON_AND_ORGANIZATION ( #215, #253 ) ;
#25 = ORIENTED_EDGE ( 'NONE', *, *, #75, .T. ) ;
#26 = AXIS2_PLACEMENT_3D ( 'NONE', #77, #146, #39 ) ;
#27 = LOCAL_TIME ( 13, 26, 6.000000000000000000, #9 ) ;
#28 = CARTESIAN_POINT ( 'NONE',  ( -6.000000000000000888, 0.000000000000000000, 7.000000000000000000 ) ) ;
#29 = DIRECTION ( 'NONE',  ( 0.000000000000000000, 0.000000000000000000, 1.000000000000000000 ) ) ;
#30 = EDGE_CURVE ( 'NONE', #195, #118, #74, .T. ) ;
#31 = AXIS2_PLACEMENT_3D ( 'NONE', #51, #137, #124 ) ;
#32 = ADVANCED_BREP_SHAPE_REPRESENTATION ( 'e85a', ( #68, #101 ), #63 ) ;
#33 = CARTESIAN_POINT ( 'NONE',  ( 0.000000000000000000, 0.000000000000000000, 0.000000000000000000 ) ) ;
#34 = PLANE ( 'NONE',  #127 ) ;
#35 = APPROVAL ( #192, 'NEURÈENÝ' ) ;
#36 = AXIS2_PLACEMENT_3D ( 'NONE', #60, #49, #116 ) ;
#37 = SECURITY_CLASSIFICATION ( '', '', #129 ) ;
#38 = PERSON_AND_ORGANIZATION_ROLE ( 'creator' ) ;
#39 = DIRECTION ( 'NONE',  ( -1.000000000000000000, 0.000000000000000000, 0.000000000000000000 ) ) ;
#40 = ORIENTED_EDGE ( 'NONE', *, *, #200, .T. ) ;
#41 = CC_DESIGN_DATE_AND_TIME_ASSIGNMENT ( #148, #145, ( #37 ) ) ;
#42 =( NAMED_UNIT ( * ) SI_UNIT ( $, .STERADIAN. ) SOLID_ANGLE_UNIT ( ) );
#43 = EDGE_LOOP ( 'NONE', ( #25, #205 ) ) ;
#44 = VECTOR ( 'NONE', #158, 1000.000000000000000 ) ;
#45 = FACE_OUTER_BOUND ( 'NONE', #238, .T. ) ;
#46 = VERTEX_POINT ( 'NONE', #81 ) ;
#47 = APPROVAL_ROLE ( '' ) ;
#48 = CIRCLE ( 'NONE', #201, 6.000000000000000888 ) ;
#49 = DIRECTION ( 'NONE',  ( -0.000000000000000000, -0.000000000000000000, -1.000000000000000000 ) ) ;
#50 = CALENDAR_DATE ( 2023, 13, 2 ) ;
#51 = CARTESIAN_POINT ( 'NONE',  ( 0.000000000000000000, 0.000000000000000000, 7.000000000000000000 ) ) ;
#52 = CC_DESIGN_DATE_AND_TIME_ASSIGNMENT ( #166, #17, ( #106 ) ) ;
#53 = LOCAL_TIME ( 13, 26, 6.000000000000000000, #175 ) ;
#54 = LINE ( 'NONE', #251, #211 ) ;
#55 = DIRECTION ( 'NONE',  ( 1.000000000000000000, 0.000000000000000000, 0.000000000000000000 ) ) ;
#56 = EDGE_CURVE ( 'NONE', #118, #195, #4, .T. ) ;
#57 = DIRECTION ( 'NONE',  ( 0.000000000000000000, 0.000000000000000000, 1.000000000000000000 ) ) ;
#58 = CARTESIAN_POINT ( 'NONE',  ( 0.000000000000000000, 0.000000000000000000, 0.000000000000000000 ) ) ;
#59 = PERSON_AND_ORGANIZATION ( #215, #253 ) ;
#60 = CARTESIAN_POINT ( 'NONE',  ( 0.000000000000000000, 0.000000000000000000, 7.000000000000000000 ) ) ;
#61 = DIRECTION ( 'NONE',  ( 1.000000000000000000, 0.000000000000000000, 0.000000000000000000 ) ) ;
#62 = AXIS2_PLACEMENT_3D ( 'NONE', #209, #71, #93 ) ;
#63 =( GEOMETRIC_REPRESENTATION_CONTEXT ( 3 ) GLOBAL_UNCERTAINTY_ASSIGNED_CONTEXT ( ( #228 ) ) GLOBAL_UNIT_ASSIGNED_CONTEXT ( ( #143, #234, #42 ) ) REPRESENTATION_CONTEXT ( 'NONE', 'WORKASPACE' ) );
#64 = CC_DESIGN_APPROVAL ( #35, ( #37 ) ) ;
#65 = CYLINDRICAL_SURFACE ( 'NONE', #31, 9.000000000000000000 ) ;
#66 = CALENDAR_DATE ( 2023, 13, 2 ) ;
#67 = DIRECTION ( 'NONE',  ( -0.000000000000000000, -0.000000000000000000, -1.000000000000000000 ) ) ;
#68 = MANIFOLD_SOLID_BREP ( 'Pøidat vysunutím3', #120 ) ;
#69 = CC_DESIGN_PERSON_AND_ORGANIZATION_ASSIGNMENT ( #6, #213, ( #11 ) ) ;
#70 = CARTESIAN_POINT ( 'NONE',  ( 0.000000000000000000, 0.000000000000000000, 100.0000000000000000 ) ) ;
#71 = DIRECTION ( 'NONE',  ( 0.000000000000000000, 0.000000000000000000, 1.000000000000000000 ) ) ;
#72 = ORIENTED_EDGE ( 'NONE', *, *, #56, .T. ) ;
#73 = PERSON_AND_ORGANIZATION ( #215, #253 ) ;
#74 = CIRCLE ( 'NONE', #141, 6.000000000000000888 ) ;
#75 = EDGE_CURVE ( 'NONE', #46, #79, #245, .T. ) ;
#76 = ORIENTED_EDGE ( 'NONE', *, *, #250, .F. ) ;
#77 = CARTESIAN_POINT ( 'NONE',  ( 0.000000000000000000, 0.000000000000000000, 100.0000000000000000 ) ) ;
#78 = DIRECTION ( 'NONE',  ( 0.000000000000000000, 0.000000000000000000, 1.000000000000000000 ) ) ;
#79 = VERTEX_POINT ( 'NONE', #98 ) ;
#80 = EDGE_CURVE ( 'NONE', #176, #130, #85, .T. ) ;
#81 = CARTESIAN_POINT ( 'NONE',  ( -9.000000000000000000, 0.000000000000000000, 7.000000000000000000 ) ) ;
#82 = DIRECTION ( 'NONE',  ( 1.000000000000000000, 0.000000000000000000, -0.000000000000000000 ) ) ;
#83 = APPROVAL_DATE_TIME ( #103, #147 ) ;
#84 = CC_DESIGN_PERSON_AND_ORGANIZATION_ASSIGNMENT ( #73, #18, ( #37 ) ) ;
#85 = CIRCLE ( 'NONE', #226, 9.000000000000000000 ) ;
#86 = CARTESIAN_POINT ( 'NONE',  ( 9.000000000000000000, 1.102182119232617714E-15, 7.000000000000000000 ) ) ;
#87 = PERSON_AND_ORGANIZATION ( #215, #253 ) ;
#88 = CARTESIAN_POINT ( 'NONE',  ( 0.000000000000000000, 0.000000000000000000, 7.000000000000000000 ) ) ;
#89 = DESIGN_CONTEXT ( 'detailed design', #252, 'design' ) ;
#90 = PLANE ( 'NONE',  #62 ) ;
#91 = CALENDAR_DATE ( 2023, 13, 2 ) ;
#92 = ADVANCED_FACE ( 'NONE', ( #8, #156 ), #150, .T. ) ;
#93 = DIRECTION ( 'NONE',  ( 1.000000000000000000, 0.000000000000000000, -0.000000000000000000 ) ) ;
#94 = ORIENTED_EDGE ( 'NONE', *, *, #30, .T. ) ;
#95 = PERSON_AND_ORGANIZATION ( #215, #253 ) ;
#96 = EDGE_LOOP ( 'NONE', ( #115, #214 ) ) ;
#97 = VERTEX_POINT ( 'NONE', #212 ) ;
#98 = CARTESIAN_POINT ( 'NONE',  ( 9.000000000000000000, 1.102182119232617714E-15, 7.000000000000000000 ) ) ;
#99 = PERSON_AND_ORGANIZATION_ROLE ( 'creator' ) ;
#100 = VERTEX_POINT ( 'NONE', #153 ) ;
#101 = AXIS2_PLACEMENT_3D ( 'NONE', #133, #178, #61 ) ;
#102 = CARTESIAN_POINT ( 'NONE',  ( 0.000000000000000000, 0.000000000000000000, 7.000000000000000000 ) ) ;
#103 = DATE_AND_TIME ( #50, #27 ) ;
#104 = ADVANCED_FACE ( 'NONE', ( #45 ), #119, .T. ) ;
#105 = FACE_OUTER_BOUND ( 'NONE', #185, .T. ) ;
#106 = PRODUCT_DEFINITION ( 'NEZNÁMÝ', '', #177, #89 ) ;
#107 = DIRECTION ( 'NONE',  ( 1.000000000000000000, 0.000000000000000000, 0.000000000000000000 ) ) ;
#108 = FACE_OUTER_BOUND ( 'NONE', #112, .T. ) ;
#109 = DIRECTION ( 'NONE',  ( -0.000000000000000000, -0.000000000000000000, -1.000000000000000000 ) ) ;
#110 = COORDINATED_UNIVERSAL_TIME_OFFSET ( 1, 0, .AHEAD. ) ;
#111 = FACE_OUTER_BOUND ( 'NONE', #241, .T. ) ;
#112 = EDGE_LOOP ( 'NONE', ( #149, #210, #40, #72 ) ) ;
#113 = CC_DESIGN_APPROVAL ( #147, ( #106 ) ) ;
#114 = CARTESIAN_POINT ( 'NONE',  ( -9.000000000000000000, 0.000000000000000000, 0.000000000000000000 ) ) ;
#115 = ORIENTED_EDGE ( 'NONE', *, *, #80, .F. ) ;
#116 = DIRECTION ( 'NONE',  ( -1.000000000000000000, 0.000000000000000000, 0.000000000000000000 ) ) ;
#117 = PERSON_AND_ORGANIZATION ( #215, #253 ) ;
#118 = VERTEX_POINT ( 'NONE', #28 ) ;
#119 = CYLINDRICAL_SURFACE ( 'NONE', #36, 9.000000000000000000 ) ;
#120 = CLOSED_SHELL ( 'NONE', ( #237, #104, #163, #92, #172, #247, #231 ) ) ;
#121 = CC_DESIGN_SECURITY_CLASSIFICATION ( #37, ( #177 ) ) ;
#122 = EDGE_CURVE ( 'NONE', #100, #195, #23, .T. ) ;
#123 = EDGE_CURVE ( 'NONE', #46, #176, #157, .T. ) ;
#124 = DIRECTION ( 'NONE',  ( -1.000000000000000000, 0.000000000000000000, 0.000000000000000000 ) ) ;
#125 = APPROVAL ( #225, 'NEURÈENÝ' ) ;
#126 = ORIENTED_EDGE ( 'NONE', *, *, #159, .F. ) ;
#127 = AXIS2_PLACEMENT_3D ( 'NONE', #33, #229, #235 ) ;
#128 = PERSON_AND_ORGANIZATION_ROLE ( 'design_supplier' ) ;
#129 = SECURITY_CLASSIFICATION_LEVEL ( 'unclassified' ) ;
#130 = VERTEX_POINT ( 'NONE', #12 ) ;
#131 = DATE_AND_TIME ( #66, #5 ) ;
#132 = APPLICATION_CONTEXT ( 'configuration controlled 3d designs of mechanical parts and assemblies' ) ;
#133 = CARTESIAN_POINT ( 'NONE',  ( 0.000000000000000000, 0.000000000000000000, 0.000000000000000000 ) ) ;
#134 = DIRECTION ( 'NONE',  ( 1.000000000000000000, 0.000000000000000000, 0.000000000000000000 ) ) ;
#135 = APPROVAL_STATUS ( 'not_yet_approved' ) ;
#136 = CARTESIAN_POINT ( 'NONE',  ( -9.000000000000000000, 0.000000000000000000, 7.000000000000000000 ) ) ;
#137 = DIRECTION ( 'NONE',  ( -0.000000000000000000, -0.000000000000000000, -1.000000000000000000 ) ) ;
#138 = EDGE_CURVE ( 'NONE', #97, #100, #48, .T. ) ;
#139 = AXIS2_PLACEMENT_3D ( 'NONE', #194, #29, #179 ) ;
#140 = CYLINDRICAL_SURFACE ( 'NONE', #222, 6.000000000000000888 ) ;
#141 = AXIS2_PLACEMENT_3D ( 'NONE', #22, #57, #134 ) ;
#142 = COORDINATED_UNIVERSAL_TIME_OFFSET ( 1, 0, .AHEAD. ) ;
#143 =( LENGTH_UNIT ( ) NAMED_UNIT ( * ) SI_UNIT ( .MILLI., .METRE. ) );
#144 = ORIENTED_EDGE ( 'NONE', *, *, #123, .T. ) ;
#145 = DATE_TIME_ROLE ( 'classification_date' ) ;
#146 = DIRECTION ( 'NONE',  ( -0.000000000000000000, -0.000000000000000000, -1.000000000000000000 ) ) ;
#147 = APPROVAL ( #135, 'NEURÈENÝ' ) ;
#148 = DATE_AND_TIME ( #232, #219 ) ;
#149 = ORIENTED_EDGE ( 'NONE', *, *, #122, .F. ) ;
#150 = PLANE ( 'NONE',  #162 ) ;
#151 = AXIS2_PLACEMENT_3D ( 'NONE', #88, #230, #55 ) ;
#152 = ORIENTED_EDGE ( 'NONE', *, *, #223, .F. ) ;
#153 = CARTESIAN_POINT ( 'NONE',  ( 6.000000000000000888, 7.347880794884119736E-16, 100.0000000000000000 ) ) ;
#154 = APPLICATION_PROTOCOL_DEFINITION ( 'international standard', 'config_control_design', 1994, #252 ) ;
#155 = CC_DESIGN_PERSON_AND_ORGANIZATION_ASSIGNMENT ( #87, #38, ( #177 ) ) ;
#156 = FACE_OUTER_BOUND ( 'NONE', #43, .T. ) ;
#157 = LINE ( 'NONE', #136, #44 ) ;
#158 = DIRECTION ( 'NONE',  ( -0.000000000000000000, -0.000000000000000000, -1.000000000000000000 ) ) ;
#159 = EDGE_CURVE ( 'NONE', #79, #130, #246, .T. ) ;
#160 = PERSON_AND_ORGANIZATION ( #215, #253 ) ;
#161 = CIRCLE ( 'NONE', #218, 6.000000000000000888 ) ;
#162 = AXIS2_PLACEMENT_3D ( 'NONE', #199, #193, #82 ) ;
#163 = ADVANCED_FACE ( 'NONE', ( #105 ), #65, .T. ) ;
#164 = APPROVAL_ROLE ( '' ) ;
#165 = DATE_AND_TIME ( #91, #183 ) ;
#166 = DATE_AND_TIME ( #3, #53 ) ;
#167 = FACE_OUTER_BOUND ( 'NONE', #20, .T. ) ;
#168 = ORIENTED_EDGE ( 'NONE', *, *, #75, .F. ) ;
#169 = CIRCLE ( 'NONE', #151, 9.000000000000000000 ) ;
#170 = APPROVAL_PERSON_ORGANIZATION ( #59, #35, #47 ) ;
#171 = CYLINDRICAL_SURFACE ( 'NONE', #26, 6.000000000000000888 ) ;
#172 = ADVANCED_FACE ( 'NONE', ( #203 ), #34, .F. ) ;
#173 = EDGE_LOOP ( 'NONE', ( #189, #1 ) ) ;
#174 = ORIENTED_EDGE ( 'NONE', *, *, #159, .T. ) ;
#175 = COORDINATED_UNIVERSAL_TIME_OFFSET ( 1, 0, .AHEAD. ) ;
#176 = VERTEX_POINT ( 'NONE', #114 ) ;
#177 = PRODUCT_DEFINITION_FORMATION_WITH_SPECIFIED_SOURCE ( 'LIBOVOLNÝ', '', #11, .NOT_KNOWN. ) ;
#178 = DIRECTION ( 'NONE',  ( 0.000000000000000000, 0.000000000000000000, 1.000000000000000000 ) ) ;
#179 = DIRECTION ( 'NONE',  ( 1.000000000000000000, 0.000000000000000000, 0.000000000000000000 ) ) ;
#180 = DIRECTION ( 'NONE',  ( 0.000000000000000000, 0.000000000000000000, 1.000000000000000000 ) ) ;
#181 = VECTOR ( 'NONE', #239, 1000.000000000000000 ) ;
#182 = VECTOR ( 'NONE', #67, 1000.000000000000000 ) ;
#183 = LOCAL_TIME ( 13, 26, 6.000000000000000000, #207 ) ;
#184 = DIRECTION ( 'NONE',  ( -0.000000000000000000, -0.000000000000000000, -1.000000000000000000 ) ) ;
#185 = EDGE_LOOP ( 'NONE', ( #126, #168, #144, #208 ) ) ;
#186 = CARTESIAN_POINT ( 'NONE',  ( 0.000000000000000000, 0.000000000000000000, 100.0000000000000000 ) ) ;
#187 = APPROVAL_DATE_TIME ( #131, #35 ) ;
#188 = CARTESIAN_POINT ( 'NONE',  ( 6.000000000000000888, 7.347880794884119736E-16, 7.000000000000000000 ) ) ;
#189 = ORIENTED_EDGE ( 'NONE', *, *, #56, .F. ) ;
#190 = AXIS2_PLACEMENT_3D ( 'NONE', #102, #10, #243 ) ;
#191 = DIRECTION ( 'NONE',  ( 1.000000000000000000, 0.000000000000000000, 0.000000000000000000 ) ) ;
#192 = APPROVAL_STATUS ( 'not_yet_approved' ) ;
#193 = DIRECTION ( 'NONE',  ( 0.000000000000000000, 0.000000000000000000, 1.000000000000000000 ) ) ;
#194 = CARTESIAN_POINT ( 'NONE',  ( 0.000000000000000000, 0.000000000000000000, 7.000000000000000000 ) ) ;
#195 = VERTEX_POINT ( 'NONE', #188 ) ;
#196 = AXIS2_PLACEMENT_3D ( 'NONE', #255, #78, #191 ) ;
#197 = ORIENTED_EDGE ( 'NONE', *, *, #16, .T. ) ;
#198 = MECHANICAL_CONTEXT ( 'NONE', #132, 'mechanical' ) ;
#199 = CARTESIAN_POINT ( 'NONE',  ( 0.000000000000000000, 0.000000000000000000, 7.000000000000000000 ) ) ;
#200 = EDGE_CURVE ( 'NONE', #97, #118, #54, .T. ) ;
#201 = AXIS2_PLACEMENT_3D ( 'NONE', #221, #244, #224 ) ;
#202 = CC_DESIGN_APPROVAL ( #125, ( #177 ) ) ;
#203 = FACE_OUTER_BOUND ( 'NONE', #96, .T. ) ;
#204 = APPROVAL_PERSON_ORGANIZATION ( #117, #147, #216 ) ;
#205 = ORIENTED_EDGE ( 'NONE', *, *, #250, .T. ) ;
#206 = CC_DESIGN_PERSON_AND_ORGANIZATION_ASSIGNMENT ( #160, #128, ( #177 ) ) ;
#207 = COORDINATED_UNIVERSAL_TIME_OFFSET ( 1, 0, .AHEAD. ) ;
#208 = ORIENTED_EDGE ( 'NONE', *, *, #80, .T. ) ;
#209 = CARTESIAN_POINT ( 'NONE',  ( 0.000000000000000000, 0.000000000000000000, 100.0000000000000000 ) ) ;
#210 = ORIENTED_EDGE ( 'NONE', *, *, #138, .F. ) ;
#211 = VECTOR ( 'NONE', #109, 1000.000000000000000 ) ;
#212 = CARTESIAN_POINT ( 'NONE',  ( -6.000000000000000888, 0.000000000000000000, 100.0000000000000000 ) ) ;
#213 = PERSON_AND_ORGANIZATION_ROLE ( 'design_owner' ) ;
#214 = ORIENTED_EDGE ( 'NONE', *, *, #16, .F. ) ;
#215 = PERSON ( 'NEURÈENÝ', 'NEURÈENÝ', 'NEURÈENÝ', ('NEURÈENÝ'), ('NEURÈENÝ'), ('NEURÈENÝ') ) ;
#216 = APPROVAL_ROLE ( '' ) ;
#217 = ORIENTED_EDGE ( 'NONE', *, *, #138, .T. ) ;
#218 = AXIS2_PLACEMENT_3D ( 'NONE', #186, #19, #107 ) ;
#219 = LOCAL_TIME ( 13, 26, 6.000000000000000000, #142 ) ;
#220 = DIRECTION ( 'NONE',  ( 1.000000000000000000, 0.000000000000000000, 0.000000000000000000 ) ) ;
#221 = CARTESIAN_POINT ( 'NONE',  ( 0.000000000000000000, 0.000000000000000000, 100.0000000000000000 ) ) ;
#222 = AXIS2_PLACEMENT_3D ( 'NONE', #70, #184, #15 ) ;
#223 = EDGE_CURVE ( 'NONE', #100, #97, #161, .T. ) ;
#224 = DIRECTION ( 'NONE',  ( 1.000000000000000000, 0.000000000000000000, 0.000000000000000000 ) ) ;
#225 = APPROVAL_STATUS ( 'not_yet_approved' ) ;
#226 = AXIS2_PLACEMENT_3D ( 'NONE', #58, #180, #220 ) ;
#227 = PRODUCT_RELATED_PRODUCT_CATEGORY ( 'detail', '', ( #11 ) ) ;
#228 = UNCERTAINTY_MEASURE_WITH_UNIT (LENGTH_MEASURE( 1.000000000000000082E-05 ), #143, 'distance_accuracy_value', 'NONE');
#229 = DIRECTION ( 'NONE',  ( 0.000000000000000000, 0.000000000000000000, 1.000000000000000000 ) ) ;
#230 = DIRECTION ( 'NONE',  ( 0.000000000000000000, 0.000000000000000000, 1.000000000000000000 ) ) ;
#231 = ADVANCED_FACE ( 'NONE', ( #111 ), #90, .T. ) ;
#232 = CALENDAR_DATE ( 2023, 13, 2 ) ;
#233 = ORIENTED_EDGE ( 'NONE', *, *, #123, .F. ) ;
#234 =( NAMED_UNIT ( * ) PLANE_ANGLE_UNIT ( ) SI_UNIT ( $, .RADIAN. ) );
#235 = DIRECTION ( 'NONE',  ( 1.000000000000000000, 0.000000000000000000, -0.000000000000000000 ) ) ;
#236 = ORIENTED_EDGE ( 'NONE', *, *, #122, .T. ) ;
#237 = ADVANCED_FACE ( 'NONE', ( #167 ), #171, .T. ) ;
#238 = EDGE_LOOP ( 'NONE', ( #76, #174, #197, #233 ) ) ;
#239 = DIRECTION ( 'NONE',  ( -0.000000000000000000, -0.000000000000000000, -1.000000000000000000 ) ) ;
#240 = APPLICATION_PROTOCOL_DEFINITION ( 'international standard', 'config_control_design', 1994, #132 ) ;
#241 = EDGE_LOOP ( 'NONE', ( #217, #242 ) ) ;
#242 = ORIENTED_EDGE ( 'NONE', *, *, #223, .T. ) ;
#243 = DIRECTION ( 'NONE',  ( 1.000000000000000000, 0.000000000000000000, 0.000000000000000000 ) ) ;
#244 = DIRECTION ( 'NONE',  ( 0.000000000000000000, 0.000000000000000000, 1.000000000000000000 ) ) ;
#245 = CIRCLE ( 'NONE', #139, 9.000000000000000000 ) ;
#246 = LINE ( 'NONE', #86, #182 ) ;
#247 = ADVANCED_FACE ( 'NONE', ( #108 ), #140, .T. ) ;
#248 = CIRCLE ( 'NONE', #196, 9.000000000000000000 ) ;
#249 = APPROVAL_DATE_TIME ( #165, #125 ) ;
#250 = EDGE_CURVE ( 'NONE', #79, #46, #169, .T. ) ;
#251 = CARTESIAN_POINT ( 'NONE',  ( -6.000000000000000888, 0.000000000000000000, 100.0000000000000000 ) ) ;
#252 = APPLICATION_CONTEXT ( 'configuration controlled 3d designs of mechanical parts and assemblies' ) ;
#253 = ORGANIZATION ( 'NEURÈENÝ', 'NEURÈENÝ', '' ) ;
#254 = SHAPE_DEFINITION_REPRESENTATION ( #14, #32 ) ;
#255 = CARTESIAN_POINT ( 'NONE',  ( 0.000000000000000000, 0.000000000000000000, 0.000000000000000000 ) ) ;
ENDSEC;
END-ISO-10303-21;
