ISO-10303-21;
HEADER;
FILE_DESCRIPTION (( 'STEP AP203' ),
    '1' );
FILE_NAME ('3e84.STEP',
    '2023-02-13T13:50:22',
    ( '' ),
    ( '' ),
    'SwSTEP 2.0',
    'SolidWorks 2019',
    '' );
FILE_SCHEMA (( 'CONFIG_CONTROL_DESIGN' ));
ENDSEC;

DATA;
#1 = CALENDAR_DATE ( 2023, 13, 2 ) ;
#2 = DIRECTION ( 'NONE',  ( -0.000000000000000000, -0.000000000000000000, -1.000000000000000000 ) ) ;
#3 = ORIENTED_EDGE ( 'NONE', *, *, #245, .F. ) ;
#4 = ORIENTED_EDGE ( 'NONE', *, *, #191, .T. ) ;
#5 = PRODUCT_DEFINITION_SHAPE ( 'NONE', 'NONE',  #67 ) ;
#6 = APPROVAL_DATE_TIME ( #246, #209 ) ;
#7 = EDGE_LOOP ( 'NONE', ( #106, #193 ) ) ;
#8 = ORGANIZATION ( 'NEURÈENÝ', 'NEURÈENÝ', '' ) ;
#9 = PERSON_AND_ORGANIZATION_ROLE ( 'creator' ) ;
#10 = CC_DESIGN_PERSON_AND_ORGANIZATION_ASSIGNMENT ( #107, #166, ( #164 ) ) ;
#11 = DATE_AND_TIME ( #28, #150 ) ;
#12 = CYLINDRICAL_SURFACE ( 'NONE', #132, 5.000000000000000000 ) ;
#13 = VECTOR ( 'NONE', #251, 1000.000000000000000 ) ;
#14 = CARTESIAN_POINT ( 'NONE',  ( -5.000000000000000000, 0.000000000000000000, 125.0000000000000000 ) ) ;
#15 = PLANE ( 'NONE',  #22 ) ;
#16 = CC_DESIGN_DATE_AND_TIME_ASSIGNMENT ( #11, #222, ( #67 ) ) ;
#17 = FACE_OUTER_BOUND ( 'NONE', #65, .T. ) ;
#18 = ADVANCED_BREP_SHAPE_REPRESENTATION ( '3e84', ( #120, #228 ), #85 ) ;
#19 = DIRECTION ( 'NONE',  ( 1.000000000000000000, 0.000000000000000000, 0.000000000000000000 ) ) ;
#20 = AXIS2_PLACEMENT_3D ( 'NONE', #152, #38, #211 ) ;
#21 = CARTESIAN_POINT ( 'NONE',  ( 0.000000000000000000, 0.000000000000000000, 5.000000000000000000 ) ) ;
#22 = AXIS2_PLACEMENT_3D ( 'NONE', #89, #252, #116 ) ;
#23 = ORIENTED_EDGE ( 'NONE', *, *, #232, .F. ) ;
#24 = ORIENTED_EDGE ( 'NONE', *, *, #191, .F. ) ;
#25 = ORIENTED_EDGE ( 'NONE', *, *, #158, .T. ) ;
#26 = AXIS2_PLACEMENT_3D ( 'NONE', #92, #210, #170 ) ;
#27 = ORIENTED_EDGE ( 'NONE', *, *, #115, .T. ) ;
#28 = CALENDAR_DATE ( 2023, 13, 2 ) ;
#29 = CALENDAR_DATE ( 2023, 13, 2 ) ;
#30 = PRODUCT_RELATED_PRODUCT_CATEGORY ( 'detail', '', ( #242 ) ) ;
#31 = COORDINATED_UNIVERSAL_TIME_OFFSET ( 1, 0, .AHEAD. ) ;
#32 = DIRECTION ( 'NONE',  ( 0.000000000000000000, 0.000000000000000000, 1.000000000000000000 ) ) ;
#33 = AXIS2_PLACEMENT_3D ( 'NONE', #162, #40, #141 ) ;
#34 = CARTESIAN_POINT ( 'NONE',  ( 0.000000000000000000, 0.000000000000000000, 5.000000000000000000 ) ) ;
#35 = APPROVAL ( #201, 'NEURÈENÝ' ) ;
#36 = DIRECTION ( 'NONE',  ( 0.000000000000000000, 0.000000000000000000, 1.000000000000000000 ) ) ;
#37 = ADVANCED_FACE ( 'NONE', ( #94 ), #248, .F. ) ;
#38 = DIRECTION ( 'NONE',  ( 0.000000000000000000, 0.000000000000000000, 1.000000000000000000 ) ) ;
#39 = DIRECTION ( 'NONE',  ( 0.000000000000000000, 0.000000000000000000, 1.000000000000000000 ) ) ;
#40 = DIRECTION ( 'NONE',  ( 0.000000000000000000, 0.000000000000000000, 1.000000000000000000 ) ) ;
#41 = DIRECTION ( 'NONE',  ( 0.000000000000000000, 0.000000000000000000, 1.000000000000000000 ) ) ;
#42 = PRODUCT_DEFINITION_FORMATION_WITH_SPECIFIED_SOURCE ( 'LIBOVOLNÝ', '', #242, .NOT_KNOWN. ) ;
#43 = CARTESIAN_POINT ( 'NONE',  ( 0.000000000000000000, 0.000000000000000000, 125.0000000000000000 ) ) ;
#44 = CYLINDRICAL_SURFACE ( 'NONE', #250, 8.000000000000000000 ) ;
#45 = EDGE_LOOP ( 'NONE', ( #24, #199, #81, #148 ) ) ;
#46 =( LENGTH_UNIT ( ) NAMED_UNIT ( * ) SI_UNIT ( .MILLI., .METRE. ) );
#47 = ADVANCED_FACE ( 'NONE', ( #114 ), #74, .T. ) ;
#48 = VERTEX_POINT ( 'NONE', #136 ) ;
#49 = APPROVAL_ROLE ( '' ) ;
#50 = ORIENTED_EDGE ( 'NONE', *, *, #185, .F. ) ;
#51 = AXIS2_PLACEMENT_3D ( 'NONE', #53, #137, #206 ) ;
#52 = ORIENTED_EDGE ( 'NONE', *, *, #253, .F. ) ;
#53 = CARTESIAN_POINT ( 'NONE',  ( 0.000000000000000000, 0.000000000000000000, 5.000000000000000000 ) ) ;
#54 = CIRCLE ( 'NONE', #33, 8.000000000000000000 ) ;
#55 = DIRECTION ( 'NONE',  ( -0.000000000000000000, -0.000000000000000000, -1.000000000000000000 ) ) ;
#56 = CARTESIAN_POINT ( 'NONE',  ( 5.000000000000000000, 6.123233995736766282E-16, 125.0000000000000000 ) ) ;
#57 = CARTESIAN_POINT ( 'NONE',  ( -5.000000000000000000, 0.000000000000000000, 125.0000000000000000 ) ) ;
#58 = FACE_OUTER_BOUND ( 'NONE', #45, .T. ) ;
#59 = ADVANCED_FACE ( 'NONE', ( #17 ), #249, .T. ) ;
#60 = APPROVAL_ROLE ( '' ) ;
#61 = PERSON_AND_ORGANIZATION ( #156, #8 ) ;
#62 = CC_DESIGN_PERSON_AND_ORGANIZATION_ASSIGNMENT ( #61, #143, ( #67 ) ) ;
#63 = CARTESIAN_POINT ( 'NONE',  ( 5.000000000000000000, 6.123233995736766282E-16, 125.0000000000000000 ) ) ;
#64 = AXIS2_PLACEMENT_3D ( 'NONE', #231, #36, #172 ) ;
#65 = EDGE_LOOP ( 'NONE', ( #3, #214, #25, #178 ) ) ;
#66 = APPROVAL_STATUS ( 'not_yet_approved' ) ;
#67 = PRODUCT_DEFINITION ( 'NEZNÁMÝ', '', #42, #218 ) ;
#68 = COORDINATED_UNIVERSAL_TIME_OFFSET ( 1, 0, .AHEAD. ) ;
#69 = PERSON_AND_ORGANIZATION ( #156, #8 ) ;
#70 = EDGE_CURVE ( 'NONE', #171, #109, #138, .T. ) ;
#71 = APPLICATION_CONTEXT ( 'configuration controlled 3d designs of mechanical parts and assemblies' ) ;
#72 = CARTESIAN_POINT ( 'NONE',  ( 0.000000000000000000, 0.000000000000000000, 5.000000000000000000 ) ) ;
#73 = DIRECTION ( 'NONE',  ( -1.000000000000000000, 0.000000000000000000, 0.000000000000000000 ) ) ;
#74 = PLANE ( 'NONE',  #64 ) ;
#75 = DIRECTION ( 'NONE',  ( -0.000000000000000000, -0.000000000000000000, -1.000000000000000000 ) ) ;
#76 = DIRECTION ( 'NONE',  ( 1.000000000000000000, 0.000000000000000000, 0.000000000000000000 ) ) ;
#77 = PERSON_AND_ORGANIZATION_ROLE ( 'design_owner' ) ;
#78 = DATE_AND_TIME ( #1, #203 ) ;
#79 = CC_DESIGN_SECURITY_CLASSIFICATION ( #164, ( #42 ) ) ;
#80 = DIRECTION ( 'NONE',  ( -1.000000000000000000, 0.000000000000000000, 0.000000000000000000 ) ) ;
#81 = ORIENTED_EDGE ( 'NONE', *, *, #232, .T. ) ;
#82 = APPROVAL_ROLE ( '' ) ;
#83 = LOCAL_TIME ( 14, 50, 22.00000000000000000, #68 ) ;
#84 = EDGE_LOOP ( 'NONE', ( #180, #108 ) ) ;
#85 =( GEOMETRIC_REPRESENTATION_CONTEXT ( 3 ) GLOBAL_UNCERTAINTY_ASSIGNED_CONTEXT ( ( #130 ) ) GLOBAL_UNIT_ASSIGNED_CONTEXT ( ( #46, #157, #194 ) ) REPRESENTATION_CONTEXT ( 'NONE', 'WORKASPACE' ) );
#86 = PERSON_AND_ORGANIZATION ( #156, #8 ) ;
#87 = CALENDAR_DATE ( 2023, 13, 2 ) ;
#88 = EDGE_LOOP ( 'NONE', ( #131, #4 ) ) ;
#89 = CARTESIAN_POINT ( 'NONE',  ( 0.000000000000000000, 0.000000000000000000, 5.000000000000000000 ) ) ;
#90 = CLOSED_SHELL ( 'NONE', ( #207, #219, #59, #102, #37, #153, #47 ) ) ;
#91 = APPROVAL ( #236, 'NEURÈENÝ' ) ;
#92 = CARTESIAN_POINT ( 'NONE',  ( 0.000000000000000000, 0.000000000000000000, 5.000000000000000000 ) ) ;
#93 = CARTESIAN_POINT ( 'NONE',  ( -5.000000000000000000, 0.000000000000000000, 5.000000000000000000 ) ) ;
#94 = FACE_OUTER_BOUND ( 'NONE', #103, .T. ) ;
#95 = VECTOR ( 'NONE', #149, 1000.000000000000000 ) ;
#96 = CARTESIAN_POINT ( 'NONE',  ( -8.000000000000000000, 0.000000000000000000, 5.000000000000000000 ) ) ;
#97 = APPROVAL_PERSON_ORGANIZATION ( #217, #209, #82 ) ;
#98 = APPLICATION_PROTOCOL_DEFINITION ( 'international standard', 'config_control_design', 1994, #176 ) ;
#99 = DIRECTION ( 'NONE',  ( -0.000000000000000000, -0.000000000000000000, -1.000000000000000000 ) ) ;
#100 = AXIS2_PLACEMENT_3D ( 'NONE', #72, #254, #73 ) ;
#101 = COORDINATED_UNIVERSAL_TIME_OFFSET ( 1, 0, .AHEAD. ) ;
#102 = ADVANCED_FACE ( 'NONE', ( #186, #140 ), #15, .T. ) ;
#103 = EDGE_LOOP ( 'NONE', ( #52, #23 ) ) ;
#104 = CC_DESIGN_APPROVAL ( #35, ( #164 ) ) ;
#105 = EDGE_LOOP ( 'NONE', ( #240, #177, #128, #197 ) ) ;
#106 = ORIENTED_EDGE ( 'NONE', *, *, #202, .T. ) ;
#107 = PERSON_AND_ORGANIZATION ( #156, #8 ) ;
#108 = ORIENTED_EDGE ( 'NONE', *, *, #167, .F. ) ;
#109 = VERTEX_POINT ( 'NONE', #139 ) ;
#110 = DATE_TIME_ROLE ( 'classification_date' ) ;
#111 = CC_DESIGN_PERSON_AND_ORGANIZATION_ASSIGNMENT ( #122, #77, ( #242 ) ) ;
#112 = SECURITY_CLASSIFICATION_LEVEL ( 'unclassified' ) ;
#113 = CC_DESIGN_APPROVAL ( #91, ( #67 ) ) ;
#114 = FACE_OUTER_BOUND ( 'NONE', #7, .T. ) ;
#115 = EDGE_CURVE ( 'NONE', #125, #171, #183, .T. ) ;
#116 = DIRECTION ( 'NONE',  ( 1.000000000000000000, 0.000000000000000000, -0.000000000000000000 ) ) ;
#117 = CC_DESIGN_DATE_AND_TIME_ASSIGNMENT ( #163, #110, ( #164 ) ) ;
#118 = DIRECTION ( 'NONE',  ( 1.000000000000000000, 0.000000000000000000, 0.000000000000000000 ) ) ;
#119 = VERTEX_POINT ( 'NONE', #96 ) ;
#120 = MANIFOLD_SOLID_BREP ( 'Pøidat vysunutím3', #90 ) ;
#121 = CIRCLE ( 'NONE', #129, 8.000000000000000000 ) ;
#122 = PERSON_AND_ORGANIZATION ( #156, #8 ) ;
#123 = APPROVAL_PERSON_ORGANIZATION ( #160, #91, #60 ) ;
#124 = APPLICATION_PROTOCOL_DEFINITION ( 'international standard', 'config_control_design', 1994, #71 ) ;
#125 = VERTEX_POINT ( 'NONE', #57 ) ;
#126 = CIRCLE ( 'NONE', #20, 5.000000000000000000 ) ;
#127 = PERSON_AND_ORGANIZATION_ROLE ( 'design_supplier' ) ;
#128 = ORIENTED_EDGE ( 'NONE', *, *, #167, .T. ) ;
#129 = AXIS2_PLACEMENT_3D ( 'NONE', #34, #154, #233 ) ;
#130 = UNCERTAINTY_MEASURE_WITH_UNIT (LENGTH_MEASURE( 1.000000000000000082E-05 ), #46, 'distance_accuracy_value', 'NONE');
#131 = ORIENTED_EDGE ( 'NONE', *, *, #182, .T. ) ;
#132 = AXIS2_PLACEMENT_3D ( 'NONE', #155, #75, #168 ) ;
#133 = CIRCLE ( 'NONE', #51, 5.000000000000000000 ) ;
#134 = DIRECTION ( 'NONE',  ( 0.000000000000000000, 0.000000000000000000, 1.000000000000000000 ) ) ;
#135 = CC_DESIGN_APPROVAL ( #209, ( #42 ) ) ;
#136 = CARTESIAN_POINT ( 'NONE',  ( 8.000000000000000000, 9.797174393178825657E-16, 0.000000000000000000 ) ) ;
#137 = DIRECTION ( 'NONE',  ( 0.000000000000000000, 0.000000000000000000, 1.000000000000000000 ) ) ;
#138 = CIRCLE ( 'NONE', #223, 5.000000000000000000 ) ;
#139 = CARTESIAN_POINT ( 'NONE',  ( 5.000000000000000000, 6.123233995736766282E-16, 5.000000000000000000 ) ) ;
#140 = FACE_OUTER_BOUND ( 'NONE', #88, .T. ) ;
#141 = DIRECTION ( 'NONE',  ( 1.000000000000000000, 0.000000000000000000, 0.000000000000000000 ) ) ;
#142 = VECTOR ( 'NONE', #237, 1000.000000000000000 ) ;
#143 = PERSON_AND_ORGANIZATION_ROLE ( 'creator' ) ;
#144 = EDGE_LOOP ( 'NONE', ( #50, #146, #27, #220 ) ) ;
#145 = CARTESIAN_POINT ( 'NONE',  ( 8.000000000000000000, 9.797174393178825657E-16, 5.000000000000000000 ) ) ;
#146 = ORIENTED_EDGE ( 'NONE', *, *, #202, .F. ) ;
#147 = PERSON_AND_ORGANIZATION ( #156, #8 ) ;
#148 = ORIENTED_EDGE ( 'NONE', *, *, #158, .F. ) ;
#149 = DIRECTION ( 'NONE',  ( -0.000000000000000000, -0.000000000000000000, -1.000000000000000000 ) ) ;
#150 = LOCAL_TIME ( 14, 50, 22.00000000000000000, #221 ) ;
#151 = CARTESIAN_POINT ( 'NONE',  ( 0.000000000000000000, 0.000000000000000000, 5.000000000000000000 ) ) ;
#152 = CARTESIAN_POINT ( 'NONE',  ( 0.000000000000000000, 0.000000000000000000, 125.0000000000000000 ) ) ;
#153 = ADVANCED_FACE ( 'NONE', ( #230 ), #12, .T. ) ;
#154 = DIRECTION ( 'NONE',  ( 0.000000000000000000, 0.000000000000000000, 1.000000000000000000 ) ) ;
#155 = CARTESIAN_POINT ( 'NONE',  ( 0.000000000000000000, 0.000000000000000000, 125.0000000000000000 ) ) ;
#156 = PERSON ( 'NEURÈENÝ', 'NEURÈENÝ', 'NEURÈENÝ', ('NEURÈENÝ'), ('NEURÈENÝ'), ('NEURÈENÝ') ) ;
#157 =( NAMED_UNIT ( * ) PLANE_ANGLE_UNIT ( ) SI_UNIT ( $, .RADIAN. ) );
#158 = EDGE_CURVE ( 'NONE', #119, #247, #227, .T. ) ;
#159 = CIRCLE ( 'NONE', #26, 8.000000000000000000 ) ;
#160 = PERSON_AND_ORGANIZATION ( #156, #8 ) ;
#161 = APPROVAL_DATE_TIME ( #78, #91 ) ;
#162 = CARTESIAN_POINT ( 'NONE',  ( 0.000000000000000000, 0.000000000000000000, 0.000000000000000000 ) ) ;
#163 = DATE_AND_TIME ( #87, #83 ) ;
#164 = SECURITY_CLASSIFICATION ( '', '', #112 ) ;
#165 = AXIS2_PLACEMENT_3D ( 'NONE', #43, #2, #80 ) ;
#166 = PERSON_AND_ORGANIZATION_ROLE ( 'classification_officer' ) ;
#167 = EDGE_CURVE ( 'NONE', #109, #171, #133, .T. ) ;
#168 = DIRECTION ( 'NONE',  ( -1.000000000000000000, 0.000000000000000000, 0.000000000000000000 ) ) ;
#169 = CC_DESIGN_PERSON_AND_ORGANIZATION_ASSIGNMENT ( #86, #9, ( #42 ) ) ;
#170 = DIRECTION ( 'NONE',  ( 1.000000000000000000, 0.000000000000000000, 0.000000000000000000 ) ) ;
#171 = VERTEX_POINT ( 'NONE', #93 ) ;
#172 = DIRECTION ( 'NONE',  ( 1.000000000000000000, 0.000000000000000000, -0.000000000000000000 ) ) ;
#173 = CARTESIAN_POINT ( 'NONE',  ( -8.000000000000000000, 0.000000000000000000, 0.000000000000000000 ) ) ;
#174 = CARTESIAN_POINT ( 'NONE',  ( 0.000000000000000000, 0.000000000000000000, 0.000000000000000000 ) ) ;
#175 = LOCAL_TIME ( 14, 50, 22.00000000000000000, #239 ) ;
#176 = APPLICATION_CONTEXT ( 'configuration controlled 3d designs of mechanical parts and assemblies' ) ;
#177 = ORIENTED_EDGE ( 'NONE', *, *, #185, .T. ) ;
#178 = ORIENTED_EDGE ( 'NONE', *, *, #253, .T. ) ;
#179 = CIRCLE ( 'NONE', #190, 5.000000000000000000 ) ;
#180 = ORIENTED_EDGE ( 'NONE', *, *, #70, .F. ) ;
#181 = SHAPE_DEFINITION_REPRESENTATION ( #5, #18 ) ;
#182 = EDGE_CURVE ( 'NONE', #119, #225, #121, .T. ) ;
#183 = LINE ( 'NONE', #14, #95 ) ;
#184 = LINE ( 'NONE', #56, #13 ) ;
#185 = EDGE_CURVE ( 'NONE', #216, #109, #184, .T. ) ;
#186 = FACE_BOUND ( 'NONE', #84, .T. ) ;
#187 = CARTESIAN_POINT ( 'NONE',  ( 0.000000000000000000, 0.000000000000000000, 125.0000000000000000 ) ) ;
#188 = CARTESIAN_POINT ( 'NONE',  ( -8.000000000000000000, 0.000000000000000000, 5.000000000000000000 ) ) ;
#189 = DIRECTION ( 'NONE',  ( 0.000000000000000000, 0.000000000000000000, 1.000000000000000000 ) ) ;
#190 = AXIS2_PLACEMENT_3D ( 'NONE', #187, #39, #76 ) ;
#191 = EDGE_CURVE ( 'NONE', #225, #119, #159, .T. ) ;
#192 = CIRCLE ( 'NONE', #205, 8.000000000000000000 ) ;
#193 = ORIENTED_EDGE ( 'NONE', *, *, #195, .T. ) ;
#194 =( NAMED_UNIT ( * ) SI_UNIT ( $, .STERADIAN. ) SOLID_ANGLE_UNIT ( ) );
#195 = EDGE_CURVE ( 'NONE', #216, #125, #126, .T. ) ;
#196 = CYLINDRICAL_SURFACE ( 'NONE', #165, 5.000000000000000000 ) ;
#197 = ORIENTED_EDGE ( 'NONE', *, *, #115, .F. ) ;
#198 = APPROVAL_DATE_TIME ( #244, #35 ) ;
#199 = ORIENTED_EDGE ( 'NONE', *, *, #245, .T. ) ;
#200 = CALENDAR_DATE ( 2023, 13, 2 ) ;
#201 = APPROVAL_STATUS ( 'not_yet_approved' ) ;
#202 = EDGE_CURVE ( 'NONE', #125, #216, #179, .T. ) ;
#203 = LOCAL_TIME ( 14, 50, 22.00000000000000000, #101 ) ;
#204 = FACE_OUTER_BOUND ( 'NONE', #105, .T. ) ;
#205 = AXIS2_PLACEMENT_3D ( 'NONE', #238, #41, #255 ) ;
#206 = DIRECTION ( 'NONE',  ( 1.000000000000000000, 0.000000000000000000, 0.000000000000000000 ) ) ;
#207 = ADVANCED_FACE ( 'NONE', ( #204 ), #196, .T. ) ;
#208 = DIRECTION ( 'NONE',  ( 1.000000000000000000, 0.000000000000000000, -0.000000000000000000 ) ) ;
#209 = APPROVAL ( #66, 'NEURÈENÝ' ) ;
#210 = DIRECTION ( 'NONE',  ( 0.000000000000000000, 0.000000000000000000, 1.000000000000000000 ) ) ;
#211 = DIRECTION ( 'NONE',  ( 1.000000000000000000, 0.000000000000000000, 0.000000000000000000 ) ) ;
#212 = DIRECTION ( 'NONE',  ( -1.000000000000000000, 0.000000000000000000, 0.000000000000000000 ) ) ;
#213 = LINE ( 'NONE', #145, #142 ) ;
#214 = ORIENTED_EDGE ( 'NONE', *, *, #182, .F. ) ;
#215 = CARTESIAN_POINT ( 'NONE',  ( 8.000000000000000000, 9.797174393178825657E-16, 5.000000000000000000 ) ) ;
#216 = VERTEX_POINT ( 'NONE', #63 ) ;
#217 = PERSON_AND_ORGANIZATION ( #156, #8 ) ;
#218 = DESIGN_CONTEXT ( 'detailed design', #71, 'design' ) ;
#219 = ADVANCED_FACE ( 'NONE', ( #58 ), #44, .T. ) ;
#220 = ORIENTED_EDGE ( 'NONE', *, *, #70, .T. ) ;
#221 = COORDINATED_UNIVERSAL_TIME_OFFSET ( 1, 0, .AHEAD. ) ;
#222 = DATE_TIME_ROLE ( 'creation_date' ) ;
#223 = AXIS2_PLACEMENT_3D ( 'NONE', #151, #134, #118 ) ;
#224 = CC_DESIGN_PERSON_AND_ORGANIZATION_ASSIGNMENT ( #69, #127, ( #42 ) ) ;
#225 = VERTEX_POINT ( 'NONE', #215 ) ;
#226 = APPROVAL_PERSON_ORGANIZATION ( #147, #35, #49 ) ;
#227 = LINE ( 'NONE', #188, #235 ) ;
#228 = AXIS2_PLACEMENT_3D ( 'NONE', #174, #189, #19 ) ;
#229 = CARTESIAN_POINT ( 'NONE',  ( 0.000000000000000000, 0.000000000000000000, 0.000000000000000000 ) ) ;
#230 = FACE_OUTER_BOUND ( 'NONE', #144, .T. ) ;
#231 = CARTESIAN_POINT ( 'NONE',  ( 0.000000000000000000, 0.000000000000000000, 125.0000000000000000 ) ) ;
#232 = EDGE_CURVE ( 'NONE', #48, #247, #54, .T. ) ;
#233 = DIRECTION ( 'NONE',  ( 1.000000000000000000, 0.000000000000000000, 0.000000000000000000 ) ) ;
#234 = MECHANICAL_CONTEXT ( 'NONE', #176, 'mechanical' ) ;
#235 = VECTOR ( 'NONE', #55, 1000.000000000000000 ) ;
#236 = APPROVAL_STATUS ( 'not_yet_approved' ) ;
#237 = DIRECTION ( 'NONE',  ( -0.000000000000000000, -0.000000000000000000, -1.000000000000000000 ) ) ;
#238 = CARTESIAN_POINT ( 'NONE',  ( 0.000000000000000000, 0.000000000000000000, 0.000000000000000000 ) ) ;
#239 = COORDINATED_UNIVERSAL_TIME_OFFSET ( 1, 0, .AHEAD. ) ;
#240 = ORIENTED_EDGE ( 'NONE', *, *, #195, .F. ) ;
#241 = LOCAL_TIME ( 14, 50, 22.00000000000000000, #31 ) ;
#242 = PRODUCT ( '3e84', '3e84', '', ( #234 ) ) ;
#243 = AXIS2_PLACEMENT_3D ( 'NONE', #229, #32, #208 ) ;
#244 = DATE_AND_TIME ( #29, #175 ) ;
#245 = EDGE_CURVE ( 'NONE', #225, #48, #213, .T. ) ;
#246 = DATE_AND_TIME ( #200, #241 ) ;
#247 = VERTEX_POINT ( 'NONE', #173 ) ;
#248 = PLANE ( 'NONE',  #243 ) ;
#249 = CYLINDRICAL_SURFACE ( 'NONE', #100, 8.000000000000000000 ) ;
#250 = AXIS2_PLACEMENT_3D ( 'NONE', #21, #99, #212 ) ;
#251 = DIRECTION ( 'NONE',  ( -0.000000000000000000, -0.000000000000000000, -1.000000000000000000 ) ) ;
#252 = DIRECTION ( 'NONE',  ( 0.000000000000000000, 0.000000000000000000, 1.000000000000000000 ) ) ;
#253 = EDGE_CURVE ( 'NONE', #247, #48, #192, .T. ) ;
#254 = DIRECTION ( 'NONE',  ( -0.000000000000000000, -0.000000000000000000, -1.000000000000000000 ) ) ;
#255 = DIRECTION ( 'NONE',  ( 1.000000000000000000, 0.000000000000000000, 0.000000000000000000 ) ) ;
ENDSEC;
END-ISO-10303-21;
