ISO-10303-21;
HEADER;
FILE_DESCRIPTION (( 'STEP AP203' ),
    '1' );
FILE_NAME ('698a.STEP',
    '2023-02-13T15:20:20',
    ( '' ),
    ( '' ),
    'SwSTEP 2.0',
    'SolidWorks 2019',
    '' );
FILE_SCHEMA (( 'CONFIG_CONTROL_DESIGN' ));
ENDSEC;

DATA;
#1 = CIRCLE ( 'NONE', #93, 3.100000000000000089 ) ;
#2 = CARTESIAN_POINT ( 'NONE',  ( -3.100000000000000089, 0.000000000000000000, 250.0000000000000000 ) ) ;
#3 = AXIS2_PLACEMENT_3D ( 'NONE', #126, #195, #22 ) ;
#4 = DIRECTION ( 'NONE',  ( -0.000000000000000000, -0.000000000000000000, -1.000000000000000000 ) ) ;
#5 = AXIS2_PLACEMENT_3D ( 'NONE', #155, #137, #234 ) ;
#6 = PERSON_AND_ORGANIZATION_ROLE ( 'creator' ) ;
#7 = ADVANCED_FACE ( 'NONE', ( #82 ), #62, .F. ) ;
#8 = CLOSED_SHELL ( 'NONE', ( #85, #52, #90, #34, #7, #246, #197 ) ) ;
#9 = VERTEX_POINT ( 'NONE', #176 ) ;
#10 = ORIENTED_EDGE ( 'NONE', *, *, #252, .T. ) ;
#11 = APPROVAL_ROLE ( '' ) ;
#12 = EDGE_CURVE ( 'NONE', #236, #9, #200, .T. ) ;
#13 = VERTEX_POINT ( 'NONE', #244 ) ;
#14 = AXIS2_PLACEMENT_3D ( 'NONE', #187, #174, #37 ) ;
#15 = CALENDAR_DATE ( 2023, 13, 2 ) ;
#16 = CIRCLE ( 'NONE', #185, 3.100000000000000089 ) ;
#17 = ORIENTED_EDGE ( 'NONE', *, *, #168, .T. ) ;
#18 = DATE_AND_TIME ( #125, #171 ) ;
#19 = APPLICATION_CONTEXT ( 'configuration controlled 3d designs of mechanical parts and assemblies' ) ;
#20 = ORIENTED_EDGE ( 'NONE', *, *, #12, .T. ) ;
#21 = DATE_AND_TIME ( #15, #41 ) ;
#22 = DIRECTION ( 'NONE',  ( 1.000000000000000000, 0.000000000000000000, 0.000000000000000000 ) ) ;
#23 = DIRECTION ( 'NONE',  ( 0.000000000000000000, 0.000000000000000000, 1.000000000000000000 ) ) ;
#24 = UNCERTAINTY_MEASURE_WITH_UNIT (LENGTH_MEASURE( 1.000000000000000082E-05 ), #63, 'distance_accuracy_value', 'NONE');
#25 = CC_DESIGN_PERSON_AND_ORGANIZATION_ASSIGNMENT ( #235, #78, ( #253 ) ) ;
#26 = PLANE ( 'NONE',  #32 ) ;
#27 = CYLINDRICAL_SURFACE ( 'NONE', #87, 3.100000000000000089 ) ;
#28 = DIRECTION ( 'NONE',  ( 1.000000000000000000, 0.000000000000000000, 0.000000000000000000 ) ) ;
#29 = AXIS2_PLACEMENT_3D ( 'NONE', #49, #221, #89 ) ;
#30 = COORDINATED_UNIVERSAL_TIME_OFFSET ( 1, 0, .AHEAD. ) ;
#31 = CARTESIAN_POINT ( 'NONE',  ( 0.000000000000000000, 0.000000000000000000, 0.000000000000000000 ) ) ;
#32 = AXIS2_PLACEMENT_3D ( 'NONE', #109, #240, #255 ) ;
#33 =( NAMED_UNIT ( * ) SI_UNIT ( $, .STERADIAN. ) SOLID_ANGLE_UNIT ( ) );
#34 = ADVANCED_FACE ( 'NONE', ( #140, #250 ), #251, .T. ) ;
#35 = APPROVAL_PERSON_ORGANIZATION ( #223, #92, #204 ) ;
#36 = CALENDAR_DATE ( 2023, 13, 2 ) ;
#37 = DIRECTION ( 'NONE',  ( 1.000000000000000000, 0.000000000000000000, -0.000000000000000000 ) ) ;
#38 = CC_DESIGN_PERSON_AND_ORGANIZATION_ASSIGNMENT ( #56, #247, ( #253 ) ) ;
#39 = ORIENTED_EDGE ( 'NONE', *, *, #146, .F. ) ;
#40 = VERTEX_POINT ( 'NONE', #118 ) ;
#41 = LOCAL_TIME ( 16, 20, 20.00000000000000000, #189 ) ;
#42 = ORIENTED_EDGE ( 'NONE', *, *, #116, .T. ) ;
#43 = COORDINATED_UNIVERSAL_TIME_OFFSET ( 1, 0, .AHEAD. ) ;
#44 = EDGE_LOOP ( 'NONE', ( #124, #143 ) ) ;
#45 = CALENDAR_DATE ( 2023, 13, 2 ) ;
#46 = LINE ( 'NONE', #162, #135 ) ;
#47 = AXIS2_PLACEMENT_3D ( 'NONE', #216, #180, #181 ) ;
#48 = CYLINDRICAL_SURFACE ( 'NONE', #212, 6.000000000000000888 ) ;
#49 = CARTESIAN_POINT ( 'NONE',  ( 0.000000000000000000, 0.000000000000000000, 5.000000000000000000 ) ) ;
#50 = FACE_OUTER_BOUND ( 'NONE', #232, .T. ) ;
#51 = DATE_TIME_ROLE ( 'creation_date' ) ;
#52 = ADVANCED_FACE ( 'NONE', ( #96 ), #77, .T. ) ;
#53 = EDGE_CURVE ( 'NONE', #40, #211, #60, .T. ) ;
#54 = EDGE_LOOP ( 'NONE', ( #230, #39, #75, #20 ) ) ;
#55 = EDGE_LOOP ( 'NONE', ( #42, #173 ) ) ;
#56 = PERSON_AND_ORGANIZATION ( #94, #229 ) ;
#57 = DIRECTION ( 'NONE',  ( 1.000000000000000000, 0.000000000000000000, 0.000000000000000000 ) ) ;
#58 = APPROVAL_DATE_TIME ( #233, #210 ) ;
#59 = CARTESIAN_POINT ( 'NONE',  ( 0.000000000000000000, 0.000000000000000000, 5.000000000000000000 ) ) ;
#60 = CIRCLE ( 'NONE', #65, 6.000000000000000888 ) ;
#61 = APPROVAL_PERSON_ORGANIZATION ( #151, #192, #11 ) ;
#62 = PLANE ( 'NONE',  #14 ) ;
#63 =( LENGTH_UNIT ( ) NAMED_UNIT ( * ) SI_UNIT ( .MILLI., .METRE. ) );
#64 =( NAMED_UNIT ( * ) PLANE_ANGLE_UNIT ( ) SI_UNIT ( $, .RADIAN. ) );
#65 = AXIS2_PLACEMENT_3D ( 'NONE', #59, #23, #132 ) ;
#66 = DIRECTION ( 'NONE',  ( -1.000000000000000000, 0.000000000000000000, 0.000000000000000000 ) ) ;
#67 = MANIFOLD_SOLID_BREP ( 'Pøidat vysunutím3', #8 ) ;
#68 = DIRECTION ( 'NONE',  ( -0.000000000000000000, -0.000000000000000000, -1.000000000000000000 ) ) ;
#69 = PRODUCT_DEFINITION ( 'NEZNÁMÝ', '', #253, #110 ) ;
#70 = CARTESIAN_POINT ( 'NONE',  ( 0.000000000000000000, 0.000000000000000000, 250.0000000000000000 ) ) ;
#71 = LOCAL_TIME ( 16, 20, 20.00000000000000000, #43 ) ;
#72 = EDGE_CURVE ( 'NONE', #136, #213, #46, .T. ) ;
#73 = VECTOR ( 'NONE', #150, 1000.000000000000000 ) ;
#74 = PERSON_AND_ORGANIZATION ( #94, #229 ) ;
#75 = ORIENTED_EDGE ( 'NONE', *, *, #119, .T. ) ;
#76 = DATE_AND_TIME ( #36, #106 ) ;
#77 = CYLINDRICAL_SURFACE ( 'NONE', #5, 6.000000000000000888 ) ;
#78 = PERSON_AND_ORGANIZATION_ROLE ( 'design_supplier' ) ;
#79 = ORIENTED_EDGE ( 'NONE', *, *, #119, .F. ) ;
#80 = APPROVAL_STATUS ( 'not_yet_approved' ) ;
#81 = CARTESIAN_POINT ( 'NONE',  ( 0.000000000000000000, 0.000000000000000000, 0.000000000000000000 ) ) ;
#82 = FACE_OUTER_BOUND ( 'NONE', #191, .T. ) ;
#83 = SECURITY_CLASSIFICATION ( '', '', #138 ) ;
#84 = LINE ( 'NONE', #183, #152 ) ;
#85 = ADVANCED_FACE ( 'NONE', ( #50 ), #27, .T. ) ;
#86 = DIRECTION ( 'NONE',  ( 0.000000000000000000, 0.000000000000000000, 1.000000000000000000 ) ) ;
#87 = AXIS2_PLACEMENT_3D ( 'NONE', #217, #238, #66 ) ;
#88 = AXIS2_PLACEMENT_3D ( 'NONE', #31, #133, #169 ) ;
#89 = DIRECTION ( 'NONE',  ( 1.000000000000000000, 0.000000000000000000, 0.000000000000000000 ) ) ;
#90 = ADVANCED_FACE ( 'NONE', ( #178 ), #48, .T. ) ;
#91 = CARTESIAN_POINT ( 'NONE',  ( 6.000000000000000888, 7.347880794884120722E-16, 5.000000000000000000 ) ) ;
#92 = APPROVAL ( #226, 'NEURÈENÝ' ) ;
#93 = AXIS2_PLACEMENT_3D ( 'NONE', #131, #130, #164 ) ;
#94 = PERSON ( 'NEURÈENÝ', 'NEURÈENÝ', 'NEURÈENÝ', ('NEURÈENÝ'), ('NEURÈENÝ'), ('NEURÈENÝ') ) ;
#95 = ORIENTED_EDGE ( 'NONE', *, *, #72, .T. ) ;
#96 = FACE_OUTER_BOUND ( 'NONE', #228, .T. ) ;
#97 = COORDINATED_UNIVERSAL_TIME_OFFSET ( 1, 0, .AHEAD. ) ;
#98 = AXIS2_PLACEMENT_3D ( 'NONE', #81, #249, #57 ) ;
#99 = ORIENTED_EDGE ( 'NONE', *, *, #12, .F. ) ;
#100 = CC_DESIGN_PERSON_AND_ORGANIZATION_ASSIGNMENT ( #74, #241, ( #139 ) ) ;
#101 = DATE_TIME_ROLE ( 'classification_date' ) ;
#102 = ORIENTED_EDGE ( 'NONE', *, *, #207, .F. ) ;
#103 = PERSON_AND_ORGANIZATION ( #94, #229 ) ;
#104 = ORIENTED_EDGE ( 'NONE', *, *, #112, .T. ) ;
#105 = DIRECTION ( 'NONE',  ( -0.000000000000000000, -0.000000000000000000, -1.000000000000000000 ) ) ;
#106 = LOCAL_TIME ( 16, 20, 20.00000000000000000, #97 ) ;
#107 = CC_DESIGN_PERSON_AND_ORGANIZATION_ASSIGNMENT ( #184, #6, ( #69 ) ) ;
#108 = CARTESIAN_POINT ( 'NONE',  ( -6.000000000000000888, 0.000000000000000000, 5.000000000000000000 ) ) ;
#109 = CARTESIAN_POINT ( 'NONE',  ( 0.000000000000000000, 0.000000000000000000, 250.0000000000000000 ) ) ;
#110 = DESIGN_CONTEXT ( 'detailed design', #153, 'design' ) ;
#111 = LINE ( 'NONE', #91, #190 ) ;
#112 = EDGE_CURVE ( 'NONE', #40, #9, #111, .T. ) ;
#113 = CARTESIAN_POINT ( 'NONE',  ( 3.100000000000000089, 3.796405077356794918E-16, 250.0000000000000000 ) ) ;
#114 = APPLICATION_PROTOCOL_DEFINITION ( 'international standard', 'config_control_design', 1994, #19 ) ;
#115 = CALENDAR_DATE ( 2023, 13, 2 ) ;
#116 = EDGE_CURVE ( 'NONE', #160, #136, #1, .T. ) ;
#117 = DATE_AND_TIME ( #115, #206 ) ;
#118 = CARTESIAN_POINT ( 'NONE',  ( 6.000000000000000888, 7.347880794884120722E-16, 5.000000000000000000 ) ) ;
#119 = EDGE_CURVE ( 'NONE', #211, #236, #201, .T. ) ;
#120 = ORIENTED_EDGE ( 'NONE', *, *, #72, .F. ) ;
#121 = PERSON_AND_ORGANIZATION_ROLE ( 'classification_officer' ) ;
#122 = ORIENTED_EDGE ( 'NONE', *, *, #134, .T. ) ;
#123 = CIRCLE ( 'NONE', #47, 6.000000000000000888 ) ;
#124 = ORIENTED_EDGE ( 'NONE', *, *, #163, .F. ) ;
#125 = CALENDAR_DATE ( 2023, 13, 2 ) ;
#126 = CARTESIAN_POINT ( 'NONE',  ( 0.000000000000000000, 0.000000000000000000, 5.000000000000000000 ) ) ;
#127 = CC_DESIGN_PERSON_AND_ORGANIZATION_ASSIGNMENT ( #103, #121, ( #83 ) ) ;
#128 = CARTESIAN_POINT ( 'NONE',  ( -6.000000000000000888, 0.000000000000000000, 5.000000000000000000 ) ) ;
#129 = CC_DESIGN_APPROVAL ( #192, ( #253 ) ) ;
#130 = DIRECTION ( 'NONE',  ( 0.000000000000000000, 0.000000000000000000, 1.000000000000000000 ) ) ;
#131 = CARTESIAN_POINT ( 'NONE',  ( 0.000000000000000000, 0.000000000000000000, 250.0000000000000000 ) ) ;
#132 = DIRECTION ( 'NONE',  ( 1.000000000000000000, 0.000000000000000000, 0.000000000000000000 ) ) ;
#133 = DIRECTION ( 'NONE',  ( 0.000000000000000000, 0.000000000000000000, 1.000000000000000000 ) ) ;
#134 = EDGE_CURVE ( 'NONE', #9, #236, #242, .T. ) ;
#135 = VECTOR ( 'NONE', #199, 1000.000000000000000 ) ;
#136 = VERTEX_POINT ( 'NONE', #113 ) ;
#137 = DIRECTION ( 'NONE',  ( -0.000000000000000000, -0.000000000000000000, -1.000000000000000000 ) ) ;
#138 = SECURITY_CLASSIFICATION_LEVEL ( 'unclassified' ) ;
#139 = PRODUCT ( '698a', '698a', '', ( #186 ) ) ;
#140 = FACE_BOUND ( 'NONE', #44, .T. ) ;
#141 = SHAPE_DEFINITION_REPRESENTATION ( #205, #202 ) ;
#142 = AXIS2_PLACEMENT_3D ( 'NONE', #161, #149, #28 ) ;
#143 = ORIENTED_EDGE ( 'NONE', *, *, #252, .F. ) ;
#144 = CC_DESIGN_SECURITY_CLASSIFICATION ( #83, ( #253 ) ) ;
#145 = CARTESIAN_POINT ( 'NONE',  ( 0.000000000000000000, 0.000000000000000000, 5.000000000000000000 ) ) ;
#146 = EDGE_CURVE ( 'NONE', #211, #40, #123, .T. ) ;
#147 = CIRCLE ( 'NONE', #3, 3.100000000000000089 ) ;
#148 = DIRECTION ( 'NONE',  ( -1.000000000000000000, 0.000000000000000000, 0.000000000000000000 ) ) ;
#149 = DIRECTION ( 'NONE',  ( 0.000000000000000000, 0.000000000000000000, 1.000000000000000000 ) ) ;
#150 = DIRECTION ( 'NONE',  ( -0.000000000000000000, -0.000000000000000000, -1.000000000000000000 ) ) ;
#151 = PERSON_AND_ORGANIZATION ( #94, #229 ) ;
#152 = VECTOR ( 'NONE', #4, 1000.000000000000000 ) ;
#153 = APPLICATION_CONTEXT ( 'configuration controlled 3d designs of mechanical parts and assemblies' ) ;
#154 = ORIENTED_EDGE ( 'NONE', *, *, #53, .F. ) ;
#155 = CARTESIAN_POINT ( 'NONE',  ( 0.000000000000000000, 0.000000000000000000, 5.000000000000000000 ) ) ;
#156 = CC_DESIGN_DATE_AND_TIME_ASSIGNMENT ( #76, #51, ( #69 ) ) ;
#157 = ORIENTED_EDGE ( 'NONE', *, *, #146, .T. ) ;
#158 = APPROVAL_ROLE ( '' ) ;
#159 = DIRECTION ( 'NONE',  ( 1.000000000000000000, 0.000000000000000000, -0.000000000000000000 ) ) ;
#160 = VERTEX_POINT ( 'NONE', #2 ) ;
#161 = CARTESIAN_POINT ( 'NONE',  ( 0.000000000000000000, 0.000000000000000000, 0.000000000000000000 ) ) ;
#162 = CARTESIAN_POINT ( 'NONE',  ( 3.100000000000000089, 3.796405077356794918E-16, 250.0000000000000000 ) ) ;
#163 = EDGE_CURVE ( 'NONE', #13, #213, #218, .T. ) ;
#164 = DIRECTION ( 'NONE',  ( 1.000000000000000000, 0.000000000000000000, 0.000000000000000000 ) ) ;
#165 = AXIS2_PLACEMENT_3D ( 'NONE', #145, #172, #159 ) ;
#166 = DIRECTION ( 'NONE',  ( 1.000000000000000000, 0.000000000000000000, 0.000000000000000000 ) ) ;
#167 = FACE_OUTER_BOUND ( 'NONE', #245, .T. ) ;
#168 = EDGE_CURVE ( 'NONE', #160, #13, #84, .T. ) ;
#169 = DIRECTION ( 'NONE',  ( 1.000000000000000000, 0.000000000000000000, 0.000000000000000000 ) ) ;
#170 = APPROVAL_DATE_TIME ( #117, #92 ) ;
#171 = LOCAL_TIME ( 16, 20, 20.00000000000000000, #193 ) ;
#172 = DIRECTION ( 'NONE',  ( 0.000000000000000000, 0.000000000000000000, 1.000000000000000000 ) ) ;
#173 = ORIENTED_EDGE ( 'NONE', *, *, #207, .T. ) ;
#174 = DIRECTION ( 'NONE',  ( 0.000000000000000000, 0.000000000000000000, 1.000000000000000000 ) ) ;
#175 = PERSON_AND_ORGANIZATION ( #94, #229 ) ;
#176 = CARTESIAN_POINT ( 'NONE',  ( 6.000000000000000888, 7.347880794884120722E-16, 0.000000000000000000 ) ) ;
#177 = ORIENTED_EDGE ( 'NONE', *, *, #134, .F. ) ;
#178 = FACE_OUTER_BOUND ( 'NONE', #54, .T. ) ;
#179 = CARTESIAN_POINT ( 'NONE',  ( -6.000000000000000888, 0.000000000000000000, 0.000000000000000000 ) ) ;
#180 = DIRECTION ( 'NONE',  ( 0.000000000000000000, 0.000000000000000000, 1.000000000000000000 ) ) ;
#181 = DIRECTION ( 'NONE',  ( 1.000000000000000000, 0.000000000000000000, 0.000000000000000000 ) ) ;
#182 =( GEOMETRIC_REPRESENTATION_CONTEXT ( 3 ) GLOBAL_UNCERTAINTY_ASSIGNED_CONTEXT ( ( #24 ) ) GLOBAL_UNIT_ASSIGNED_CONTEXT ( ( #63, #64, #33 ) ) REPRESENTATION_CONTEXT ( 'NONE', 'WORKASPACE' ) );
#183 = CARTESIAN_POINT ( 'NONE',  ( -3.100000000000000089, 0.000000000000000000, 250.0000000000000000 ) ) ;
#184 = PERSON_AND_ORGANIZATION ( #94, #229 ) ;
#185 = AXIS2_PLACEMENT_3D ( 'NONE', #237, #86, #166 ) ;
#186 = MECHANICAL_CONTEXT ( 'NONE', #19, 'mechanical' ) ;
#187 = CARTESIAN_POINT ( 'NONE',  ( 0.000000000000000000, 0.000000000000000000, 0.000000000000000000 ) ) ;
#188 = EDGE_LOOP ( 'NONE', ( #157, #194 ) ) ;
#189 = COORDINATED_UNIVERSAL_TIME_OFFSET ( 1, 0, .AHEAD. ) ;
#190 = VECTOR ( 'NONE', #196, 1000.000000000000000 ) ;
#191 = EDGE_LOOP ( 'NONE', ( #99, #177 ) ) ;
#192 = APPROVAL ( #231, 'NEURÈENÝ' ) ;
#193 = COORDINATED_UNIVERSAL_TIME_OFFSET ( 1, 0, .AHEAD. ) ;
#194 = ORIENTED_EDGE ( 'NONE', *, *, #53, .T. ) ;
#195 = DIRECTION ( 'NONE',  ( 0.000000000000000000, 0.000000000000000000, 1.000000000000000000 ) ) ;
#196 = DIRECTION ( 'NONE',  ( -0.000000000000000000, -0.000000000000000000, -1.000000000000000000 ) ) ;
#197 = ADVANCED_FACE ( 'NONE', ( #198 ), #26, .T. ) ;
#198 = FACE_OUTER_BOUND ( 'NONE', #55, .T. ) ;
#199 = DIRECTION ( 'NONE',  ( -0.000000000000000000, -0.000000000000000000, -1.000000000000000000 ) ) ;
#200 = CIRCLE ( 'NONE', #98, 6.000000000000000888 ) ;
#201 = LINE ( 'NONE', #128, #73 ) ;
#202 = ADVANCED_BREP_SHAPE_REPRESENTATION ( '698a', ( #67, #88 ), #182 ) ;
#203 = APPROVAL_PERSON_ORGANIZATION ( #175, #210, #158 ) ;
#204 = APPROVAL_ROLE ( '' ) ;
#205 = PRODUCT_DEFINITION_SHAPE ( 'NONE', 'NONE',  #69 ) ;
#206 = LOCAL_TIME ( 16, 20, 20.00000000000000000, #30 ) ;
#207 = EDGE_CURVE ( 'NONE', #136, #160, #16, .T. ) ;
#208 = ORIENTED_EDGE ( 'NONE', *, *, #168, .F. ) ;
#209 = ORIENTED_EDGE ( 'NONE', *, *, #163, .T. ) ;
#210 = APPROVAL ( #80, 'NEURÈENÝ' ) ;
#211 = VERTEX_POINT ( 'NONE', #108 ) ;
#212 = AXIS2_PLACEMENT_3D ( 'NONE', #219, #68, #148 ) ;
#213 = VERTEX_POINT ( 'NONE', #239 ) ;
#214 = ORIENTED_EDGE ( 'NONE', *, *, #116, .F. ) ;
#215 = APPROVAL_DATE_TIME ( #18, #192 ) ;
#216 = CARTESIAN_POINT ( 'NONE',  ( 0.000000000000000000, 0.000000000000000000, 5.000000000000000000 ) ) ;
#217 = CARTESIAN_POINT ( 'NONE',  ( 0.000000000000000000, 0.000000000000000000, 250.0000000000000000 ) ) ;
#218 = CIRCLE ( 'NONE', #29, 3.100000000000000089 ) ;
#219 = CARTESIAN_POINT ( 'NONE',  ( 0.000000000000000000, 0.000000000000000000, 5.000000000000000000 ) ) ;
#220 = PRODUCT_RELATED_PRODUCT_CATEGORY ( 'detail', '', ( #139 ) ) ;
#221 = DIRECTION ( 'NONE',  ( 0.000000000000000000, 0.000000000000000000, 1.000000000000000000 ) ) ;
#222 = CYLINDRICAL_SURFACE ( 'NONE', #248, 3.100000000000000089 ) ;
#223 = PERSON_AND_ORGANIZATION ( #94, #229 ) ;
#224 = APPLICATION_PROTOCOL_DEFINITION ( 'international standard', 'config_control_design', 1994, #153 ) ;
#225 = CC_DESIGN_APPROVAL ( #92, ( #69 ) ) ;
#226 = APPROVAL_STATUS ( 'not_yet_approved' ) ;
#227 = CC_DESIGN_DATE_AND_TIME_ASSIGNMENT ( #21, #101, ( #83 ) ) ;
#228 = EDGE_LOOP ( 'NONE', ( #154, #104, #122, #79 ) ) ;
#229 = ORGANIZATION ( 'NEURÈENÝ', 'NEURÈENÝ', '' ) ;
#230 = ORIENTED_EDGE ( 'NONE', *, *, #112, .F. ) ;
#231 = APPROVAL_STATUS ( 'not_yet_approved' ) ;
#232 = EDGE_LOOP ( 'NONE', ( #102, #95, #10, #208 ) ) ;
#233 = DATE_AND_TIME ( #45, #71 ) ;
#234 = DIRECTION ( 'NONE',  ( -1.000000000000000000, 0.000000000000000000, 0.000000000000000000 ) ) ;
#235 = PERSON_AND_ORGANIZATION ( #94, #229 ) ;
#236 = VERTEX_POINT ( 'NONE', #179 ) ;
#237 = CARTESIAN_POINT ( 'NONE',  ( 0.000000000000000000, 0.000000000000000000, 250.0000000000000000 ) ) ;
#238 = DIRECTION ( 'NONE',  ( -0.000000000000000000, -0.000000000000000000, -1.000000000000000000 ) ) ;
#239 = CARTESIAN_POINT ( 'NONE',  ( 3.100000000000000089, 3.796405077356794918E-16, 5.000000000000000000 ) ) ;
#240 = DIRECTION ( 'NONE',  ( 0.000000000000000000, 0.000000000000000000, 1.000000000000000000 ) ) ;
#241 = PERSON_AND_ORGANIZATION_ROLE ( 'design_owner' ) ;
#242 = CIRCLE ( 'NONE', #142, 6.000000000000000888 ) ;
#243 = CC_DESIGN_APPROVAL ( #210, ( #83 ) ) ;
#244 = CARTESIAN_POINT ( 'NONE',  ( -3.100000000000000089, 0.000000000000000000, 5.000000000000000000 ) ) ;
#245 = EDGE_LOOP ( 'NONE', ( #120, #214, #17, #209 ) ) ;
#246 = ADVANCED_FACE ( 'NONE', ( #167 ), #222, .T. ) ;
#247 = PERSON_AND_ORGANIZATION_ROLE ( 'creator' ) ;
#248 = AXIS2_PLACEMENT_3D ( 'NONE', #70, #105, #254 ) ;
#249 = DIRECTION ( 'NONE',  ( 0.000000000000000000, 0.000000000000000000, 1.000000000000000000 ) ) ;
#250 = FACE_OUTER_BOUND ( 'NONE', #188, .T. ) ;
#251 = PLANE ( 'NONE',  #165 ) ;
#252 = EDGE_CURVE ( 'NONE', #213, #13, #147, .T. ) ;
#253 = PRODUCT_DEFINITION_FORMATION_WITH_SPECIFIED_SOURCE ( 'LIBOVOLNÝ', '', #139, .NOT_KNOWN. ) ;
#254 = DIRECTION ( 'NONE',  ( -1.000000000000000000, 0.000000000000000000, 0.000000000000000000 ) ) ;
#255 = DIRECTION ( 'NONE',  ( 1.000000000000000000, 0.000000000000000000, -0.000000000000000000 ) ) ;
ENDSEC;
END-ISO-10303-21;
